Iron Maiden - Wrathchild Chords & Tabs

 

Wrathchild Chords & Tabs

Iron Maiden Chords & Tabs

Version: 1 Type: Tab 0 ratings
1 star 2 stars 3 stars 4 stars 5 stars
comments

Wrathchild Tab

   
#----------------------------------PLEASE NOTE---------------------------------#
#This file is the author's own work and represents their interpretation of the #
#song. You may only use this file for private study, scholarship, or research. #
#------------------------------------------------------------------------------##
#


From wigren@skelleftea.mail.telia.com Wed Jan 29 11:53:43 1997
Date: Fri, 24 Jan 1997 11:24:01 +0100
From: wigren@skelleftea.mail.telia.com
To: Olga Guitar Tab 
Subject: Tab WRATHCHILD by IRON MAIDEN

WRATHCHILD
Written by Steve Harris.
Performed by IRON MAIDEN.
Taken from the album KILLERS.

Transcribed by Oskar "The Seventh Son" Wigren.
E-mail me at wigren@skelleftea.mail.telia.com

Chords used in this song:

   C   B   G   F#
E------------------|
B------------------|
G--5---4-----------|
D--5---4---5---4---|
A--3---2---5---4---|
E----------3---2---|

Bass-intro:

G------------------------------------|
D------------------------------------|
A---5-7-------------5-7--------------|
E-------0-0-0-0-0-0-----0-0-0-0-0-0--|

G------------------------------------|
D-------------------5-5-4-5-7-5-4----|
A---5-7---------------------------5--|
E-------0-0-0-0-0-0------------------|

Mainriff:

E-----------------------------------|
B-----------------------------------|
G-----------------------------------|
D-----------------------------------|
A---5-7-------------5-7-------------|
E-------0-0-0-0-0-0-----0-0-0-0-0-0-|

E-----------------------------------|
B-----------------------------------|
G-----------------------------------|
D-------------------5-5-4-5-7-5-4---|
A---5-7---------------------------5-|
E-------0-0-0-0-0-0-----------------|

Bridge 1:

 
E----------------------------------------------------|
B----------------------------------------------------|
G--5-------4-----------------------------------------|
D--5-------4-----------------------------------------|
A--3-------2-------5-7-------------5-7---------------|
E----------------------0-0-0-0-0-0------0-0-0-0-0-0--|

Bridge 2:

  
E-------------------------------------------------|
B-------------------------------------------------|
G--5-------4--------------------------------------|
D--5-------4----------5-------4-------------------|
A--3-------2----------5-------4-------------------|
E---------------------3-------2-------------------|

[ Tab from: http://www.guitartabs.cc/tabs/i/iron_maiden/wrathchild_tab.html ]
E---------------------------|
B---------------------------|
G--5-------4----------------|
D--5-------4----------------|
A--3-------2----------------|
E---------------------------|

Chorus:
E-------------------------------|
B-------------------------------|
G-------------------------------|
D-------------------------------|
A--5-7-------------7-5---5---5--|
E------0-0-0-0-0-0-----7---7----|

E-------------------------------|
B-------------------------------|
G-------------------------------|
D------------------5-6-7--------|
A--5-7-------------------5---5--|
E------0-0-0-0-0-0---------7----|

E-------------------------------|
B-------------------------------|
G-------------------------------|
D-------------------------------|
A--5-7-------------7-5---5---5--|
E------0-0-0-0-0-0-----7---7----|

Chorus-lick 1:
E---------------------------------|
B---------------------------------|
G---------------------------------|
D---------------------------------|
A--3-3-3-3-3---3-3---3---3-3---3--|
E---------------------------------|

E---------------------------------|
B---------------------------------|
G---------------------------------|
D---------------------------------|
A--5-5-5-5-5---5-5---5---5-5---5--|
E---------------------------------|

Chorus-lick 2:
E------------------------|
B------------------------|
G------------------------|
D------------------------|
A--7-5---5---5-----------|
E------7---7---7-6-5--3--|

End of chorus.

Riff 2:
E-------------------------------|
B-------------------------------|
G-------------------------------|
D-------------------------------|
A----------5-------5------------|
E--7-7---7---7---7---7-6-5-3-0--|

Riff 3:
E-------------------------------|
B-------------------------------|
G-------------------------------|
D----------2-------2------------|
A--4-4---4---4---4---4-3-2-0----|
E----------------------------2--|

Riff 4:
E-------------------------------|
B-------------------------------|
G-------------------------------|
D----------3-------3------------|
A--5-5---5---5---5---5-4-3-1----|
E-----------------------------3-|

Song-structure:
Bass/Drums intro
Mainriff (4 times)
Bridge 1 (2 times)
Bridge 2
Mainriff (2 times)
Chorus
Mainriff (4 times)
Chorus-lick 1
Chorus-lick 2
Drum-bridge
Riff 2 (4 times)
Riff 3 (2 times)
Riff 4 (2 times)
Chorus-lick 2
Mainriff (4 times)
Bridge 1 (2 times)
Bridge 2
Mainriff (2 times)
Chorus
Chorus-lick 2 (2 times)
End.


If you want me to transcribe some
other Iron Maiden-song, then E-mail me at
wigren@skelleftea.mail.telia.com.

OSKAR WIGREN "THE SEVENTH SON"
Comments