Iron Maiden - Wildest Dreams Chords & Tabs

 

Wildest Dreams Chords & Tabs

Iron Maiden Chords & Tabs

Version: 3 Type: Tab 0 ratings
1 star 2 stars 3 stars 4 stars 5 stars
comments

Wildest Dreams Tab

Wildest Dreams                                  


                                                                    Juha Keränen
Dave Murray
Rate and Watch my other tabs!



                                                                            
E||----------|------------------|-------------------|----------------------|
B||----------|------------------|-------------------|----------------------|
G||----------|------------------|-------------------|----------------------|
D||----------|------------------|-------------------|--6-------7------7----|
A||----------|------------------|-------------------|--7-------7------7----|
E||----------|------------------|----------------0--|-------0--------------|


                                                                         
------------------------|-----------------------|-----------------------|
------------------------|-----------------------|-----------------------|
------------------------|-----------------------|-----------------------|
-----7-------7--6-------|--6-------7-------7----|-------7-------7-------|
-----7-------7--7-------|--7-------7-------7----|-------7-------7-------|
--0-------0----------0--|-------0-------0-------|----0-------0-------0--|


                                                                        
----------------------|------------------------|-----------------------|
----------------------|------------------------|-----------------------|
----------------------|------------------------|-----------------------|
--6-------7------7----|-----7-------7--6-------|--4-------6-------7----|
--7-------7------7----|-----7-------7--7-------|--5-------5-------5----|
-------0--------------|--0-------0----------0--|-------0-------0-------|


                                                                   
------------------|----------------------|------------------------|
------------------|----------------------|------------------------|
------------------|----------------------|------------------------|
------------------|--6-------7------7----|-----7-------7--6-------|
------------------|--7-------7------7----|-----7-------7--7-------|
------------------|-------0--------------|--0-------0----------0--|


                                                                       
-----------------------|-----------------------|----------------------|
-----------------------|-----------------------|----------------------|
-----------------------|-----------------------|----------------------|
--6-------7-------7----|-------7-------7-------|--6-------7------7----|
--7-------7-------7----|-------7-------7-------|--7-------7------7----|
-------0-------0-------|----0-------0-------0--|-------0--------------|


                                                                    
------------------------|-----------------------|------------------|
------------------------|-----------------------|------------------|
------------------------|-----------------------|------------------|
-----7-------7--6-------|--4-------6-------7----|------------------|
-----7-------7--7-------|--5-------5-------5----|------------------|
--0-------0----------0--|-------0-------0-------|------------------|


                                                                        
----------------------|------------------------|-----------------------|
----------------------|------------------------|-----------------------|
----------------------|------------------------|-----------------------|
--6-------7------7----|-----7-------7--6-------|--6-------7-------7----|
--7-------7------7----|-----7-------7--7-------|--7-------7-------7----|
-------0--------------|--0-------0----------0--|-------0-------0-------|


                                                                        
-----------------------|----------------------|------------------------|
-----------------------|----------------------|------------------------|
-----------------------|----------------------|------------------------|
-------7-------7-------|--6-------7------7----|-----7-------7--6-------|
-------7-------7-------|--7-------7------7----|-----7-------7--7-------|
----0-------0-------0--|-------0--------------|--0-------0----------0--|


                                                                  
-----------------------|------------------|----------------------|
-----------------------|------------------|----------------------|
-----------------------|------------------|----------------------|
--4-------6-------7----|------------------|--6-------7------7----|
--5-------5-------5----|------------------|--7-------7------7----|
-------0-------0-------|------------------|-------0--------------|


                                                                         
------------------------|-----------------------|-----------------------|
------------------------|-----------------------|-----------------------|
------------------------|-----------------------|-----------------------|
-----7-------7--6-------|--6-------7-------7----|-------7-------7-------|
-----7-------7--7-------|--7-------7-------7----|-------7-------7-------|
--0-------0----------0--|-------0-------0-------|----0-------0-------0--|


                                                                        
----------------------|------------------------|-----------------------|
----------------------|------------------------|-----------------------|
----------------------|------------------------|-----------------------|
--6-------7------7----|-----7-------7--6-------|--4-------6-------7----|
--7-------7------7----|-----7-------7--7-------|--5-------5-------5----|
-------0--------------|--0-------0----------0--|-------0-------0-------|


                                                           
------------------|-------------------|-------------------|
------------------|-------------------|-------------------|
------------------|-------------------|-------------------|
------------------|--3----------------|----------------5--|
------------------|--3----------------|-------------------|
------------------|-------------------|-------------------|


                                                                   
------3----------------|------3----------------|------------------|
-----------6--5--3-----|-----------6--5--3-----|------------------|
-----------------------|-----------------------|------------------|
--------------------5--|--------------------3--|------------------|
-----------------------|--------------------3--|------------------|
-----------------------|-----------------------|------------------|


                                                                    
-------------------|------3----------------|------3----------------|
-------------------|-----------6--5--3-----|-----------6--5--3-----|
-------------------|-----------------------|-----------------------|
----------------5--|--------------------5--|--------------------3--|
-------------------|-----------------------|--------------------3--|
-------------------|-----------------------|-----------------------|


                                                               
------------------|-------------------|------3----------------|
------------------|-------------------|-----------6--5--3-----|
------------------|-------------------|-----------------------|
------------------|----------------5--|--------------------5--|
------------------|-------------------|-----------------------|
------------------|-------------------|-----------------------|


                                                              
------3----------------|------------------|------------------|
-----------6--5--3-----|------------------|------------------|
-----------------------|------------------|------------------|
--------------------3--|------------------|------------------|
--------------------3--|------------------|------------------|
-----------------------|------------------|------------------|


                                                               
---------------------|------------------|---------------------|
---------------------|------------------|---------------------|
---------------------|------------------|--6------7------6----|
--5------5------2----|------------------|---------------------|
--5------5------2----|------------------|---------------------|
---------------------|------------------|---------------------|


                                                                  
---------------------|---------------------|---------------------|
---------------------|----------------6----|----5------8--6------|
----7------6--4------|--6------7-----------|---------------------|
---------------------|---------------------|---------------------|
---------------------|---------------------|---------------------|
---------------------|---------------------|---------------------|


                                                                  
---------------------|---------------------|---------------------|
---------------------|---------------------|---------------------|
--6------7------6----|----7------6--4------|--6------7------5----|
---------------------|---------------------|---------------------|
---------------------|---------------------|---------------------|
---------------------|---------------------|---------------------|


                                                               
------------------|---------------------|---------------------|
------------------|---------------------|---------------------|
------------------|--6------7------6----|----7------6--4------|
------------------|---------------------|---------------------|
------------------|---------------------|---------------------|
------------------|---------------------|---------------------|


                                                                  
---------------------|---------------------|---------------------|
----------------6----|----5------8--6------|---------------------|
--6------7-----------|---------------------|--6------7------6----|
---------------------|---------------------|---------------------|
---------------------|---------------------|---------------------|
---------------------|---------------------|---------------------|


                                                               
---------------------|---------------------|------------------|
---------------------|---------------------|------------------|
----7------6--4------|--6------7------5----|------------------|
---------------------|---------------------|------------------|
---------------------|---------------------|------------------|
---------------------|---------------------|------------------|


                                                                        
----------------------|------------------------|-----------------------|
----------------------|------------------------|-----------------------|
----------------------|------------------------|-----------------------|
--6-------7------7----|-----7-------7--6-------|--6-------7-------7----|
--7-------7------7----|-----7-------7--7-------|--7-------7-------7----|
-------0--------------|--0-------0----------0--|-------0-------0-------|


                                                                        
-----------------------|----------------------|------------------------|
-----------------------|----------------------|------------------------|
-----------------------|----------------------|------------------------|
-------7-------7-------|--6-------7------7----|-----7-------7--6-------|
-------7-------7-------|--7-------7------7----|-----7-------7--7-------|
----0-------0-------0--|-------0--------------|--0-------0----------0--|


                                                                  
-----------------------|------------------|----------------------|
-----------------------|------------------|----------------------|
-----------------------|------------------|----------------------|
--4-------6-------7----|------------------|--6-------7------7----|
--5-------5-------5----|------------------|--7-------7------7----|
-------0-------0-------|------------------|-------0--------------|


                                                                         
------------------------|-----------------------|-----------------------|
------------------------|-----------------------|-----------------------|
------------------------|-----------------------|-----------------------|
-----7-------7--6-------|--6-------7-------7----|-------7-------7-------|
-----7-------7--7-------|--7-------7-------7----|-------7-------7-------|
--0-------0----------0--|-------0-------0-------|----0-------0-------0--|


                                                                        
----------------------|------------------------|-----------------------|
----------------------|------------------------|-----------------------|
----------------------|------------------------|-----------------------|
--6-------7------7----|-----7-------7--6-------|--4-------6-------7----|
--7-------7------7----|-----7-------7--7-------|--5-------5-------5----|
-------0--------------|--0-------0----------0--|-------0-------0-------|


                                                           
------------------|-------------------|-------------------|
------------------|-------------------|-------------------|
------------------|-------------------|-------------------|
------------------|--3----------------|----------------5--|
------------------|--3----------------|-------------------|
------------------|-------------------|-------------------|


                                                                   
------3----------------|------3----------------|------------------|
-----------6--5--3-----|-----------6--5--3-----|------------------|
-----------------------|-----------------------|------------------|
--------------------5--|--------------------3--|------------------|
-----------------------|--------------------3--|------------------|
-----------------------|-----------------------|------------------|


                                                                    
-------------------|------3----------------|------3----------------|
-------------------|-----------6--5--3-----|-----------6--5--3-----|
-------------------|-----------------------|-----------------------|
----------------5--|--------------------5--|--------------------3--|
-------------------|-----------------------|--------------------3--|
-------------------|-----------------------|-----------------------|


                                                               
------------------|-------------------|------3----------------|
------------------|-------------------|-----------6--5--3-----|
------------------|-------------------|-----------------------|
------------------|----------------5--|--------------------5--|
------------------|-------------------|-----------------------|
------------------|-------------------|-----------------------|


                                                              
------3----------------|------------------|------------------|
-----------6--5--3-----|------------------|------------------|
-----------------------|------------------|------------------|
--------------------3--|------------------|------------------|
--------------------3--|------------------|------------------|
-----------------------|------------------|------------------|


                                                               
---------------------|------------------|---------------------|
---------------------|------------------|---------------------|
---------------------|------------------|--6------7------6----|
--5------5------2----|------------------|---------------------|
--5------5------2----|------------------|---------------------|
---------------------|------------------|---------------------|


                                                                  
---------------------|---------------------|---------------------|
---------------------|----------------6----|----5------8--6------|
----7------6--4------|--6------7-----------|---------------------|
---------------------|---------------------|---------------------|
---------------------|---------------------|---------------------|
---------------------|---------------------|---------------------|

[ Tab from: http://www.guitartabs.cc/tabs/i/iron_maiden/wildest_dreams_tab_ver_3.html ]
                                                                  
---------------------|---------------------|---------------------|
---------------------|---------------------|---------------------|
--6------7------6----|----7------6--4------|--6------7------5----|
---------------------|---------------------|---------------------|
---------------------|---------------------|---------------------|
---------------------|---------------------|---------------------|


                                                               
------------------|---------------------|---------------------|
------------------|---------------------|---------------------|
------------------|--6------7------6----|----7------6--4------|
------------------|---------------------|---------------------|
------------------|---------------------|---------------------|
------------------|---------------------|---------------------|


                                                                  
---------------------|---------------------|---------------------|
----------------6----|----5------8--6------|---------------------|
--6------7-----------|---------------------|--6------7------6----|
---------------------|---------------------|---------------------|
---------------------|---------------------|---------------------|
---------------------|---------------------|---------------------|


                                                               
---------------------|---------------------|------------------|
---------------------|---------------------|------------------|
----7------6--4------|--6------7------5----|------------------|
---------------------|---------------------|------------------|
---------------------|---------------------|------------------|
---------------------|---------------------|------------------|


                                                                       
-----------------------|-------------------------|--------------------|
-----------------------|-------------------------|--------------------|
--7--6----4------------|-------------------------|--------------------|
---------------7----5--|----4--7--5--4-----------|--9--------------9--|
-----------------------|----------------7--5-----|--9--------------9--|
-----------------------|----------------------5--|--------------------|


                                                             
-------------------|-------------------|--------------------|
-------------------|-------------------|--------------------|
-------------------|-------------------|--------------------|
----------------9--|----------------9--|--------7--------9--|
----------------9--|----------------9--|--------7--------9--|
-------------------|-------------------|--------------------|


                                                                                
-------------------|-------------------|-------------------|-------------------|
-------------------|-------------------|-------------------|-------------------|
-------------------|-------------------|-------------------|-------------------|
----------------9--|----------------9--|----------------9--|----------------9--|
----------------9--|----------------9--|----------------9--|----------------9--|
-------------------|-------------------|-------------------|-------------------|


                                                            
-------------------|-------------------|-------------------|
-------------------|-------------------|-------------------|
-------------------|-------------------|-------------------|
----------------9--|----------------9--|----------------9--|
----------------9--|----------------9--|----------------9--|
-------------------|-------------------|-------------------|


                                                             
--------------------|-------------------|-------------------|
--------------------|-------------------|-------------------|
--------------------|-------------------|-------------------|
--------7--------9--|----------------9--|----------------9--|
--------7--------9--|----------------9--|----------------9--|
--------------------|-------------------|-------------------|


                                                                               
-------------------|------------------|-------------------|-------------------|
-------------------|------------------|-------------------|-------------------|
-------------------|------------------|--5----------------|--7----------------|
----------------9--|------------------|--5----------------|--7----------------|
----------------9--|------------------|--3----------------|--5----------------|
-------------------|------------------|-------------------|-------------------|


                                                            
-------------------|------------------|--------------------|
-------------------|------------------|--------------------|
--9----------------|------------------|--12----------------|
--9----------------|------------------|--12----------------|
--7----------------|------------------|--10----------------|
-------------------|------------------|--------------------|


                                                                                
--------------------|-------------------|------------------|-------------------|
--------------------|-------------------|------------------|-------------------|
--11----------------|--9----------------|------------------|--5----------------|
--12----------------|--9----------------|------------------|--5----------------|
--9-----------------|--7----------------|------------------|--3----------------|
--------------------|-------------------|------------------|-------------------|


                                                                               
-------------------|-------------------|------------------|-------------------|
-------------------|-------------------|------------------|-------------------|
--7----------------|--9----------------|------------------|--5----------------|
--7----------------|--9----------------|------------------|--5----------------|
--5----------------|--7----------------|------------------|--3----------------|
-------------------|-------------------|------------------|-------------------|


                                                           
-------------------|-------------------|------------------|
-------------------|-------------------|------------------|
--7----------------|--9----------------|------------------|
--7----------------|--9----------------|------------------|
--5----------------|--7----------------|------------------|
-------------------|-------------------|------------------|


                                                      
--------------------------|--------------------------|
--------------------------|--------------------------|
--5--------5--------5-----|--7--------7--------7-----|
--5--------5--------5-----|--7--------7--------7-----|
--3--3--3--3--3--3--3--3--|--5--5--5--5--5--5--5--5--|
--------------------------|--------------------------|


                                                      
--------------------------|--------------------------|
--------------------------|--------------------------|
--9--------9--------9-----|-----9--------9-----9-----|
--9--------9--------9-----|-----9--------9-----9-----|
--7--7--7--7--7--7--7--7--|--7--7--7--7--7--7--7--7--|
--------------------------|--------------------------|


                                                      
--------------------------|--------------------------|
--------------------------|--------------------------|
--5--------5--------5-----|--7--------7--------7-----|
--5--------5--------5-----|--7--------7--------7-----|
--3--3--3--3--3--3--3--3--|--5--5--5--5--5--5--5--5--|
--------------------------|--------------------------|


                                                      
--------------------------|--------------------------|
--------------------------|--------------------------|
--9--------9--------9-----|-----9--------9-----9-----|
--9--------9--------9-----|-----9--------9-----9-----|
--7--7--7--7--7--7--7--7--|--7--7--7--7--7--7--7--7--|
--------------------------|--------------------------|


                                                      
--------------------------|--------------------------|
--------------------------|--------------------------|
--------------------------|--------------------------|
--5--5--5--5--5--5--5--5--|--7--7--7--7--7--7--7--7--|
--3--3--3--3--3--3--3--3--|--5--5--5--5--5--5--5--5--|
--------------------------|--------------------------|


                                                      
--------------------------|--------------------------|
--------------------------|--------------------------|
--------------------------|--------------------------|
--9--9--9--9--9--9--9--9--|--9--9--9--9--9--9--9--9--|
--7--7--7--7--7--7--7--7--|--7--7--7--7--7--7--7--7--|
--------------------------|--------------------------|


                                                      
--------------------------|--------------------------|
--------------------------|--------------------------|
--------------------------|--------------------------|
--5--5--5--5--5--5--5--5--|--7--7--7--7--7--7--7--7--|
--3--3--3--3--3--3--3--3--|--5--5--5--5--5--5--5--5--|
--------------------------|--------------------------|


                                                      
--------------------------|--------------------------|
--------------------------|--------------------------|
--------------------------|--------------------------|
--9--9--9--9--9--9--9--9--|--9--9--9--9--9--9--9--9--|
--7--7--7--7--7--7--7--7--|--7--7--7--7--7--7--7--7--|
--------------------------|--------------------------|


                                                          
--10--9--0--12--9--0--10--9--|--0--12--9--0--10--9--0----|
-----------------------------|---------------------------|
-----------------------------|---------------------------|
-----------------------------|---------------------------|
-----------------------------|---------------------------|
-----------------------------|---------------------------|


                                                                
--10--9--0--12--9--0--13--12--|--0--15--12--0--15--13--12------|
------------------------------|----------------------------15--|
------------------------------|--------------------------------|
------------------------------|--------------------------------|
------------------------------|--------------------------------|
------------------------------|--------------------------------|


                                                          
--10--9--0--12--9--0--10--9--|--0--12--9--0--10--9--0----|
-----------------------------|---------------------------|
-----------------------------|---------------------------|
-----------------------------|---------------------------|
-----------------------------|---------------------------|
-----------------------------|---------------------------|


                                                        
--10--9--0--12--9--0--8--7--|--3--8--7--3--8--7--5-----|
----------------------------|-----------------------8--|
----------------------------|--------------------------|
----------------------------|--------------------------|
----------------------------|--------------------------|
----------------------------|--------------------------|


                                                          
--10--9--0--12--9--0--10--9--|--0--12--9--0--10--9--0----|
-----------------------------|---------------------------|
-----------------------------|---------------------------|
-----------------------------|---------------------------|
-----------------------------|---------------------------|
-----------------------------|---------------------------|


                                                                
--10--9--0--12--9--0--13--12--|--0--15--12--0--15--13--12------|
------------------------------|----------------------------15--|
------------------------------|--------------------------------|
------------------------------|--------------------------------|
------------------------------|--------------------------------|
------------------------------|--------------------------------|


                                                          
--10--9--0--12--9--0--10--9--|--0--12--9--0--10--9--0----|
-----------------------------|---------------------------|
-----------------------------|---------------------------|
-----------------------------|---------------------------|
-----------------------------|---------------------------|
-----------------------------|---------------------------|


                                                        
--10--9--0--12--9--0--8--7--|--3--8--7--3--8--7--5-----|
----------------------------|-----------------------8--|
----------------------------|--------------------------|
----------------------------|--------------------------|
----------------------------|--------------------------|
----------------------------|--------------------------|


                                                          
--10--9--0--12--9--0--10--9--|--0--12--9--0--10--9--0----|
-----------------------------|---------------------------|
-----------------------------|---------------------------|
-----------------------------|---------------------------|
-----------------------------|---------------------------|
-----------------------------|---------------------------|


                                                                
--10--9--0--12--9--0--13--12--|--0--15--12--0--15--13--12------|
------------------------------|----------------------------15--|
------------------------------|--------------------------------|
------------------------------|--------------------------------|
------------------------------|--------------------------------|
------------------------------|--------------------------------|


                                                          
--10--9--0--12--9--0--10--9--|--0--12--9--0--10--9--0----|
-----------------------------|---------------------------|
-----------------------------|---------------------------|
-----------------------------|---------------------------|
-----------------------------|---------------------------|
-----------------------------|---------------------------|


                                                        
--10--9--0--12--9--0--8--7--|--3--8--7--3--8--7--5-----|
----------------------------|-----------------------8--|
----------------------------|--------------------------|
----------------------------|--------------------------|
----------------------------|--------------------------|
----------------------------|--------------------------|


                                                          
--10--9--0--12--9--0--10--9--|--0--12--9--0--10--9--0----|
-----------------------------|---------------------------|
-----------------------------|---------------------------|
-----------------------------|---------------------------|
-----------------------------|---------------------------|
-----------------------------|---------------------------|


                                                                
--10--9--0--12--9--0--13--12--|--0--15--12--0--15--13--12------|
------------------------------|----------------------------15--|
------------------------------|--------------------------------|
------------------------------|--------------------------------|
------------------------------|--------------------------------|
------------------------------|--------------------------------|


                                                          
--10--9--0--12--9--0--10--9--|--0--12--9--0--10--9--0----|
-----------------------------|---------------------------|
-----------------------------|---------------------------|
-----------------------------|---------------------------|
-----------------------------|---------------------------|
-----------------------------|---------------------------|


                                                                                
--10--9--0--12--9--0--8--7--|--3--8--7--3--8--7--5-----|-----------------------|
----------------------------|-----------------------8--|-----------------------|
----------------------------|--------------------------|--7--6----4------------|
----------------------------|--------------------------|---------------7----5--|
----------------------------|--------------------------|-----------------------|
----------------------------|--------------------------|-----------------------|


                                               
-------------------------|-------------------||
-------------------------|-------------------||
-------------------------|-------------------||
----4--7--5--4-----------|-------------------||
----------------7--5-----|-------------------||
----------------------5--|--7----------------||
Comments