Iron Maiden - Wasted Love Chords & Tabs

 

Wasted Love Chords & Tabs

Iron Maiden Chords & Tabs

Version: 1 Type: Tab 0 ratings
1 star 2 stars 3 stars 4 stars 5 stars
comments

Wasted Love Tab

   
Iron Maiden - Wasted Love
Tabbed By: chris
EMail: mansfield


I have worked out how all of the song is played now 


Intro

E|------------^^-------------------------------------
B|------------10-10-----12-10------------------------
G|-9-11-12----------11--------12-11-12-11-9----------   <-- 4 times
D|---------10-------------------------------12-------
A|---------------------------------------------------
E|---------------------------------------------------

Verse

E|---------------------------------------------------------------------------
B|-------------------------3-------------------------------3-----------------
G|---------0-----------0-------0-----------0-----------0---------------------
D|-----4-------4-----4---4---4---4-----4-----4---4---4---4-------------------
A|---2---2---2---2-3-----------------2---2-----2---3-------------------------
E|-0-------------------------------0-----------------------------------------
           maybe one day       I'll be a honest man...


Bridge1:

E|---------------------------------------------------------------------------
B|---------1---------------3-------------------------------------------------
G|-----0-----0---0-----0-------0---------------------------------------------
D|---2---2-----2-----4---4---4---4-------------------------------------------
A|-0---------------0---------------------------------------------------------
E|---------------------------------------------------------------------------

           long roads...

The Chorus is only chords:

        Em        C          D         G    F#m

     spend your days full of emptiness

Bridge 2:

E|---------------0-------------------0----------------------------------------
B|---------------0-------------------0----------------------------------------
G|-----0-----0---0------0-----0------0----------------------------------------
D|---4-----2-----2----4-----2--------2----------------------------------------
A|-5-----3-------2--5-----3----------2----------------------------------------
E|-------------0----------------0-0-------------------------------------------

Bridge 3:
[ Tab from: http://www.guitartabs.cc/tabs/i/iron_maiden/wasted_love_tab.html ]
E|---------------------------------------------------------------------------
B|------------------------1--------------------------------------------------
G|----------0---------0------------------------------------------------------
D|-----4------4-----4---4----------------------------------------------------
A|---2---2------2-3----------------------------------------------------------
E|-0-------------------------------------------------------------------------

Solo:

E|-8------------------------------------15----14----12----12~~~--------------
B|---11-9P8H9~-----------------------12----12----12----12-------15-14-12-----
G|-------------9-7-----------------------------------------------------------
D|-----------------10-9-10-9-7----7------------------------------------------
A|-----------------------------11--------------------------------------------
E|---------------------------------------------------------------------------

E|----12----14----15----14----15----17----19~~~---19-17-15-14-15~~-----------
B|-12----12----12----12----12----12----12------------------------------------
G|---------------------------------------------------------------------------
D|---------------------------------------------------------------------------
A|---------------------------------------------------------------------------
E|---------------------------------------------------------------------------


E|-19-17-15-14-------19-17-15-14-15-14---------------------15-14-12----12----
B|-------------15~~--------------------17-15-17~~-15~~--12----------15----15-
G|---------------------------------------------------------------------------
D|---------------------------------------------------------------------------
A|---------------------------------------------------------------------------
E|---------------------------------------------------------------------------

E|--------------------12----14----15----17-19~~--17~~------------------------
B|-13-12-13-12-----12----12----12----12--------------------------------------
G|-------------14------------------------------------------------------------
D|---------------------------------------------------------------------------
A|---------------------------------------------------------------------------
E|---------------------------------------------------------------------------
===========Iron Maiden - Wasted Love
Tabbed By: 111111111
EMail: chrismansfield55@


Intro x4
/-----------------------------------------------------------------/
/---------------------10---------12----10-------------------------/
/---9-----11--12-----------11---------------12--11--12--11--9-----/
/-----------------10-------------------------------------------12-/
/-----------------------------------------------------------------/
/-----------------------------------------------------------------/

I dont know the verse

Chourus

Em     C     D     G      Fm
i think thats right anyway
Comments