Iron Maiden - Two Am Chords & Tabs

 

Two Am Chords & Tabs

Iron Maiden Chords & Tabs

Version: 2 Type: Tab 0 ratings
1 star 2 stars 3 stars 4 stars 5 stars
comments

Two Am Tab

----------------------------------PLEASE NOTE--------------------------------#
#This file is the author's own work and represents their interpretation of the#
#song. You may only use this file for private study, scholarship, or research.#
#-----------------------------------------------------------------------------#

From: "linus karlsson" 
Subject: i/iron_maiden/xfactor.tab
Date: Mon, 09 Mar 1998 08:25:03 PST




                                    2 A.M
                           Iron maiden / Xfactor
                            (Bayley/Gers/Harris)    
                       Tabbed by Linus Karlsson 971109
 Intro:Gr1(accoustic)                                                                             
|--------------0--|--------------0--|--------------0--|-----------------|
|-----------0-----|-----------0-----|-----------0-----|-----------0-----|
|--------5--------|--------5--------|--------5--------|--------5--------|
|-----2-----------|-----2-----------|-----4-----------|-----2-----------|
|--0--------------|--3--------------|--5--------------|--0--------------|                       
|-----------------|-----------------|-----------------|-----------------|
 Play this Intro-part 4 times

 Gr2(clean)
|-----------------------------------------------------------------------|
|--------8h10p8-------------8h10p8-------------8h10p8-------------------|
|--------------9-7----------------9-7----------------9-7---7------------|
|-----------------10-----------------10-----------------10--------------|
|-----------------------------------------------------------------------|
|-----------------------------------------------------------------------|
 Play this fill-in at the third time of the intropart

|-----------------------------------------------------------------------|
|--------8h10p8-------------8h10p8-------------8h10p8-------------------|
|--------------9-7----------------9-7----------------9-7----------------|
|-----------------10-----------------10-----------------(10)-10---------|
|-----------------------------------------------------------------------|
|-----------------------------------------------------------------------|
 Play this fill-in at the fourd time of the intropart

 Verse(accoustic)
|--------------------------|--------------------------|
|--------------0-----------|--------------0-----------|
|--------2-----------2-----|--------0-----------0-----|
|-----2-----2-----2-----2--|-----2-----2-----2-----2--|
|--0-----------------------|--3-----------------------|
|--------------------------|--------------------------|
   
|--------------------------|--------------------------|
|--------------0-----------|--------------0-----------|
|--------0-----------0-----|--------2-----------2-----|
|-----4-----4-----4-----4--|-----2-----2-----2-----2--|
|--5-----------------------|--0-----------------------|
|--------------------------|--------------------------|
 Play this 4 times

  chorus(distortion)
|------------------------------------------------|
|------------------------------------------------|
|-------------5-x-x-x-5--7-x-x-x-7---------------|
|--7-x-x-x-7--5-x-x-x-5--7-x-x-x-7--7-x-x-x-7\5--|
|--7-x-x-x-7--3-x-x-x-3--5-x-x-x-5--7-x-x-x-7\5--|
|--5-x-x-x-5------------------------5-x-x-x-5\3--|

|------------------------------------------------|
|------------------------------------------------|
|------------------------7-x-x-x-7---------------|
|--7-x-x-x-7--5-x-x-x-5--7-x-x-x-7--7-x-x-x-7\5--|
|--7-x-x-x-7--5-x-x-x-5--5-x-x-x-5--7-x-x-x-7\5--|
|--5-x-x-x-5--3-x-x-x-3-------------5-x-x-x-5\3--|

|------------------------------------------------|
|------------------------------------------------|
|-------------5-x-x-x-5--7-x-x-x-7---------------|
|--7-x-x-x-7--5-x-x-x-5--7-x-x-x-7--7-x-x-x-7\5--|
|--7-x-x-x-7--3-x-x-x-3--5-x-x-x-5--7-x-x-x-7\5--|
|--5-x-x-x-5------------------------5-x-x-x-5\3--|

|-----------------------------------|
|-----------------------------------|
|-------------5-x-x-x-5--7-x-x-x-7--|
|--7-x-x-x-7--5-x-x-x-5--7-x-x-x-7--|
|--7-x-x-x-7--3-x-x-x-3--5-x-x-x-5--|
|--5-x-x-x-5------------------------|

 fill-in 2(accoustic) 
|--------------------------------------|
|-----------1--0--------------------2--|
|--------2--------2--------------0-----|
|-----2--------------2--------2--------|
|--0--------------------0--3-----------|
|--------------------------------------|

|---------------------------------------------0--|
|-----------1--0------------------------------1--|
|--------2--------2--------------0--------0---2--|
|-----2--------------2--------2--------4------2--|
|--0--------------------0--3--------5------------|
|------------------------------------------------|
[ Tab from: http://www.guitartabs.cc/tabs/i/iron_maiden/two_am_tab_ver_2.html ]
 Verse 2
|--------------------------|--------------------------|
|--------------------------|--------------------------|
|--------4-----5--4-----4--|--------4-----5--4-----4--|
|-----2-----2--------2-----|-----2-----2--------2-----|
|--0-----------------------|--3-----------------------|
|--------------------------|--------------------------|

|--------------------------|--------------------------|
|--------------------------|--------------------------|
|--------0-----5--0-----0--|--------4-----5~----------|
|-----4-----4--------4-----|-----2-----2--------------|
|--5-----------------------|--3-----------------------|
|--------------------------|--------------------------|
 Play this 4 times

 (chorus)

 (intro) 

 Riff1 (Both guitars)                                        
|--8-7-8-7-8-7-8-7----------5-8-7---|--8-7-8-7-8-7-8-7-----------5-12-10--|
|------------------5---5-5-6--------|------------------5---5-5-6----------|
|-----------------------------------|-------------------------------------|
|-----------------------------------|-------------------------------------|
|-----------------------------------|-------------------------------------|
|-----------------------------------|-------------------------------------|
 Play riff 1 twice

 Riff 2
|----------------------------------|------------------|------------------|
|----------------------------------|------------------|------------------|
|-9-x-x-x-x-x-x-x-x-x-x-x-x-x-x-x--|------------------|-9-x-x-x-x-x-x-x--|
|-9-x-x-x-x-x-x-x-x-x-x-x-x-x-x-x--|-10-x-x-x-x-x-x-x-|-9-x-x-x-x-x-x-x--|
|-7-x-x-x-x-x-x-x-x-x-x-x-x-x-x-x--|-10-x-x-x-x-x-x-x-|-5-x-x-x-x-x-x-x--|
|----------------------------------|--8-x-x-x-x-x-x-x-|------------------|

|----------------------------------|------------------|------------------|
|----------------------------------|------------------|------------------|
|-9-x-x-x-x-x-x-x-x-x-x-x-x-x-x-x--|------------------|-9-x-x-x-x-x-x-x--|
|-9-x-x-x-x-x-x-x-x-x-x-x-x-x-x-x--|-10-x-x-x-x-x-x-x-|-9-x-x-x-x-x-x-x--|
|-7-x-x-x-x-x-x-x-x-x-x-x-x-x-x-x--|-10-x-x-x-x-x-x-x-|-5-x-x-x-x-x-x-x--|
|----------------------------------|--8-x-x-x-x-x-x-x-|------------------|

|----------------------------------|------------------|------------------|
|----------------------------------|------------------|------------------|
|-9-x-x-x-x-x-x-x-x-x-x-x-x-x-x-x--|------------------|------------------|
|-9-x-x-x-x-x-x-x-x-x-x-x-x-x-x-x--|-10-x-x-x-x-x-x-x-|-5-x-x-x-x-x-x-x--|
|-7-x-x-x-x-x-x-x-x-x-x-x-x-x-x-x--|-10-x-x-x-x-x-x-x-|-5-x-x-x-x-x-x-x--|
|----------------------------------|--8-x-x-x-x-x-x-x-|-3-x-x-x-x-x-x-x--|

|----------------------------------|------------------|------------------|
|----------------------------------|------------------|------------------|
|-9-x-x-x-x-x-x-x-x-x-x-x-x-x-x-x--|------------------|-9-x-x-x-x-x-x-x--|
|-9-x-x-x-x-x-x-x-x-x-x-x-x-x-x-x--|-10-x-x-x-x-x-x-x-|-9-x-x-x-x-x-x-x--|
|-7-x-x-x-x-x-x-x-x-x-x-x-x-x-x-x--|-10-x-x-x-x-x-x-x-|-5-x-x-x-x-x-x-x--|
|----------------------------------|--8-x-x-x-x-x-x-x-|------------------|
 Play this to the solo
 
 SOLO
|----------------17-15-14----------|-19-17-------------|------------------|
|-15b17--15b17------------17-15-17-|-------20-19-20-19-|15-15-15-15-15----|
|----------------------------------|-------------------|------------------|
|----------------------------------|-------------------|------------------|
|----------------------------------|-------------------|------------------|
|----------------------------------|-------------------|------------------| 

|-19-19-20-17-19-15-17-14-15-12-14p-12----12|-19-17--------------------|
|-------------------------------------h15---|-------20-19-20-19--------|
|-------------------------------------------|-------------------19-----|
|-------------------------------------------|----------------------19--|
|-------------------------------------------|--------------------------|
|-------------------------------------------|--------------------------|

|-------|-------------17--------------17-|-19-17--------------------|
|-------|-17-17-19-20-----17-17-19-20----|-------20-19-20-19--------|
|-------|--------------------------------|-------------------19-----|
|-17-16-|--------------------------------|----------------------19--|
|-------|--------------------------------|--------------------------|
|-------|--------------------------------|--------------------------| 

|-------|-------------------------17-------------------|
|-17-16-|-17-17-19-20-19-17-19-20----20-19-20-19-17----|
|-------|-------------------------------------------19-|
|-------|----------------------------------------------|
|-------|----------------------------------------------|
|-------|----------------------------------------------| 

|-17----------------|----------------------------------|
|----20-19-20-19-17-|----------------------------------|
|-------------------|-19-------------------------------|
|-------------------|----------------------------------|
|-------------------|----------------------------------|
|-------------------|----------------------------------|
 
Comments