Iron Maiden - Transylvania Chords & Tabs

 

Transylvania Chords & Tabs

Iron Maiden Chords & Tabs

Version: 1 Type: Bass Tab 0 ratings
1 star 2 stars 3 stars 4 stars 5 stars
comments

Transylvania Bass Tab

Transylvania by Iron Maiden
Standard Tuning

Intro
  G:-----------|------------|------------|------------|
  D:-----------|---3--------|---3--------|---3--------|
  A:5----------|3-----5-----|3-----5-----|3-----5-----|
  E:-----------|------------|------------|------------|

  |------------|------------|------------|------------|
  |---3--------|---5--------|---5--------|---5--------|
  |3-----7-----|5-----7-----|5-----7-----|5-----7-----|
  |------------|------------|------------|------------|


     Main Part (x 2 times)
    <2nd time fig 1> 
||------------|------------|------------|------------|
||*-----------|5-4---------|5-4---------|------------|
||*3-5-7-7-7-7|-----7-7-7-7|-----5-5-5-5|-0-5-7-7-7-7|
||------------|------------|------------|------------|

|------------|------------|------------|----------9-|
|5-4---------|5-4---------|5-4---------|------5/7---|
|-----7-7-7--|-----7-7-7-7|-----5-5-5-5|0-5-7-------|
|------------|------------|------------|------------|
 
|------------|------------|------------|------------|
|9-----------|------------|------------|------------|
|------------|5-4---------|5-4---------|------------|
|----7-7-7-7-|-----7-7-7-7|-----5-5-5-5|-0-5-7-7----|

|------------|------------|------------|------------||
|------------|------------|------------|----------9*||
|5-4---------|5-4---------|5-4---------|------5/7--*||
|-----7-7-7-7|-----7-7-7-7|-----5-5-5-5|0-5-7-------||


	      fig 1		          fig 2
             |------------|	       |------------|
             |------------|	       |------------|
	     |10-9-7-7-7-7|	       |------------|
	     |------------|	       |0-5-7-7-7-7-|



  "Chorus n1"
    x 3 times			   	4th time 1st bar 
  ||-------------|------------||------------|
  ||*-----5-5-5-5|-----------*||-----5-5-5-5|  then go to 
  ||*7-5---------|3-5-7-7-7-7*||7-5---------|     main part
  ||-------------|------------||------------|

 
  "The Main Part" (x 1 time)


  "Chorus n2"
    x 3 times			   	 
  ||-------------|------------||------------|-----------|
  ||*-----5-5-5-5|-----------*||-----5-5-5-5|-----------| 
  ||*7-5---------|3-5-7-7-7-7*||7-5---------|3----5----7|
  ||-------------|------------||------------|-----------|


  |-----------------|-----------------|-----------------|-----------------|
  |---5-------------|---5-------------|---5-------------|-----------------|
  |-5---7-----------|-5---7-----------|-5---7-----------|----3---5---7----|
  |-----------------|-----------------|-----------------|-----------------|


   interlude (both guitars)		
  |-----------------|-----------------|-----------------|-----------------|
  |-----------------|--------4-5-7----|-----------------|-------4---------|
  |-7-7-7-7-7-7-7-7-|--7-7-7-------5--|-5-5-5-5-5-5-5-5-|-5-5-5---5-5-3---|
  |-----------------|-----------------|-----------------|-----------------|


  |-----------------|-----------------|-------------7h9-|-9-9-9-9-7-------|
  |-------2---------|-------4---------|-------5/7-9-----|-----------9-----|
  |-3-3-3---3-3-5---|-5-5-5---5-5-7---|-7-7-7-----------|-------------7---|
  |-----------------|-----------------|-----------------|-----------------|


  
   guitar solo 1 (x 4 times)	       <               fig 5             >	
  ||----------------|-----------------|---------------7-|-----------------|
  |*----------------|--------4-5-7----|-------4-5-7-----|-7-7-5-----------|
  |*7-7-7-7-7-7-7-7-|--7-7-7-------5--|-5-5-5-----------|-------7-5-2-3---|
  ||----------------|-----------------|-----------------|-----------------|

  				      <2nd,3rd time fig 3 / 4th time fig 4>
  |-----------------|-----------------|---------9-7-----|----------------||
  |-------2---------|-------4---------|---5/7-9-----9-7-|-5-7-5----------*|
  |-3-3-3---3-3-5---|-5-5-5---5-5-7---|-7---------------|-------5-7------*|
  |-----------------|-----------------|-----------------|----------------||


  			fig 3
 			|-----------------|-----------------|
  			|-----------------|-----------------|
  			|-7-7-7-7-7-7-7---|-7-7-7-7-7-7-7---|
  			|-----------------|-----------------|

  
  			fig 4
 			|-----------------|-----------------|
  			|-----------------|-----------------|
  			|-7-7-7-7-7-7-7---|-7-7-7-7-5-5--7--|
  			|-----------------|-----------------|


   bridge
  |-----------------|-----------------|-----------------|-----------------|
  |-----------------|-----------------|-----------------|-----------------|
  |-(7)-------------|--------------5--|-----------------|--------------3--|
  |-----------------|-----------------|-----------------|-----------------|
[ Tab from: http://www.guitartabs.cc/tabs/i/iron_maiden/transylvania_btab.html ]
  |-----------------|-----------------|-----------------|-----------------|
  |-----------------|-----------------|-----------------|-----------------|
  |--------------5--|--------------7--|-------------7-7-|-7-7-7-7-7-7--7--|
  |-----------------|-----------------|-----------------|-----------------|


   interlude (both guitars)  
				                  
  |-----------------|-----------------|-----------------|-----------------|
  |-----------------|--------4-5-7----|-------4-5-7---7-|-7--7-5----------|
  |-7-7-7-7-7-7-7-7-|--7-7-7-------5--|-5-5-5-----------|--------7-3------|
  |-----------------|-----------------|-----------------|-----------------|
 
  |-----------------|-----------------|-------------7h9-|-9-9-9-9-7-------|
  |-------2---------|-------4---------|-------5/7-9-----|-----------9-----|
  |-3-3-3---3-3-5---|-5-5-5---5-5-7---|-7-7-7-----------|-------------7---|
  |-----------------|-----------------|-----------------|-----------------|


   guitar solo 2 
    x 2 times			       <         2nd time fig 5		 >		
  ||----------------|-----------------|-----------------|-----------------|
  |*----------------|--------4-5-7----|-----------------|-------4---------|
  |*7-7-7-7-7-7-7-7-|--7-7-7-------5--|-5-5-5-5-5-5-5-5-|-5-5-5---5-5-3---|
  ||----------------|-----------------|-----------------|-----------------|
  				      
  |-----------------|-----------------|-----------------|----------------||
  |-------2---------|-------4---------|-----------------|----------------*|
  |-3-3-3---3-3-5---|-5-5-5---5-5-7---|-7-7-7-7-7-7-7---|-7-7-7-7-7-7-7--*|
  |-----------------|-----------------|-----------------|----------------||


  |-9-9-9-9-9-9-9-9-|-9-9-9-9-7-------|-7-7-7-7-7-7-7-7-|-7-7-7-7-5-------|
  |-----------------|-----------9-----|-----------------|-----------7-----|
  |-----------------|--------------5--|-----------------|--------------3--|
  |-----------------|-----------------|-----------------|-----------------|

  |-5-5-5-5-3-------|-7-7-7-7-5-------|-9-9-9-9-9-9-9-9-|-9-9-9-9-7-------|
  |-----------5-----|-----------7-----|-----------------|-----------9-----|
  |--------------5--|-------------7---|-----------------|--------------7--|
  |-----------------|-----------------|-----------------|-----------------|


  |-9-9-9-9-9-9-9-9-|-9-9-9-9-7-------|-7-7-7-7-7-7-7-7-|-5---------------|
  |-----------------|-----------9-----|-----------------|----7------------|
  |-----------------|--------------5--|-----------------|-------3---------|
  |-----------------|-----------------|-----------------|-----------------|

  |-5-5-5-5-3-------|-7-7-7-7-5-------|-9-9-9-9-9-9-9-9-|-9-9-9-9-7-------|
  |-----------5-----|-----------7-----|-----------------|-----------9-----|
  |--------------5--|-------------7---|-----------------|--------------7--|
  |-----------------|-----------------|-----------------|-----------------|

   both guitars 
  |-----------------|-----------------|---------------7-|-----------------|
  |-----------------|--------4-5-7----|-------4-5-7-----|-7-7-5-----------|
  |-7-7-7-7-7-7-7-7-|--7-7-7-------5--|-5-5-5-----------|-------7-5-2-3---|
  |-----------------|-----------------|-----------------|-----------------|

  				      
  |-----------------|-----------------|-9-9-9-9-9-9-9-9-|-9-9-9-9-7-------|
  |-------2---------|-------4---------|-----------------|-----------9-----|
  |-3-3-3---3-3-5---|-5-5-5---5-5-7-7-|-----------------|--------------7--|
  |-----------------|-----------------|-----------------|-----------------|


  |-----------------|-----------------|---------------7-|-----------------|
  |-----------------|--------4-5-7----|-------4-5-7-----|-7-7-5-----------|
  |-7-7-7-7-7-7-7-7-|--7-7-7-------5--|-5-5-5-----------|-------7-5-2-3---|
  |-----------------|-----------------|-----------------|-----------------|

  				      		lib variation
  |-----------------|-----------------|-----------------|-----------------|
  |-------2---------|-------4---------|-----------------|-----------------|
  |-3-3-3---3-3-5---|-5-5-5---5-5-----|-7-(7)-----------|-----------------|
  |-----------------|-----------------|-----------------|-----------------|
 


   Outro
  |-----------------|-----------------|-----------------|-----------------|
  |-9---------------|-7---------------|-5---------------|-4---------------|
  |-----------------|-----------------|-----------------|-----------------|
  |-----------------|-----------------|-----------------|-----------------|


  |-----------------|-----------------|-----------------|-----------------|
  |-----------------|-----------------|-----------------|-----------------|
  |-7---------------|-5---------------|-7---------------|-----------------|
  |-----------------|-----------------|-----------------|--------0--------|

Thanks, please rate it after you learn it
_TheBassist01_
Comments