Iron Maiden - To Tame A Land Chords & Tabs

 

To Tame A Land Chords & Tabs

Iron Maiden Chords & Tabs

Version: 1 Type: Tab 0 ratings
1 star 2 stars 3 stars 4 stars 5 stars
comments

To Tame A Land Tab

   
Iron Maiden 
To tame a land


GTR I (E A D G B E) - 'Untitled'
Gtr II (E A D G B E) - 'Untitled'
Gtr III (E A D G B E) - 'Untitled'
Gtr IV (E A D G B E) - 'Untitled'
Gtr V (E A D G B E) - 'Untitled'

   Intro
    Q=150
    Bm
   4/4
    Gtr I
||---2----(2)-2-3p2p0-|--2-----(2)-2-3p2p0-|
||o-------------------|--------------------|
||--------------------|--------------------|
||--------------------|--------------------|
||o-------------------|--------------------|
||--------------------|--------------------|
|
|   Gtr II
||--^2----------------|-(2)----------------|
||o-^3----------------|-(3)----------------|
||--^4----------------|-(4)----------------|
||--^4----------------|-(4)----------------|
||o-^2----------------|-(2)----------------|
||--------------------|--------------------|


|--2--3-5s7s5-3-2-3-|--2--3-2-3-2--0---|
|-------------------|------------------|
|-------------------|------------------|
|-------------------|------------------|
|-------------------|------------------|
|-------------------|------------------|
|
|-(2)---------------|-(2)--------------|
|-(3)---------------|-(3)--------------|
|-(4)---------------|-(4)--------------|
|-(4)---------------|-(4)--------------|
|-(2)---------------|-(2)--------------|
|-------------------|------------------|


  G
|-------------------|--------------------|
|--3----(3)-3-5p3p2-|--3-----(3)-3-5p3p2-|
|-------------------|--------------------|
|-------------------|--------------------|
|-------------------|--------------------|
|-------------------|--------------------|
|
|-^3----------------|-(3)----------------|
|-^0----------------|-(0)----------------|
|-^0----------------|-(0)----------------|
|-^0----------------|-(0)----------------|
|-------------------|--------------------|
|-------------------|--------------------|


|-------2-3-2-------|--2--3-2----------|
|--3--5-------5-3-5-|---------5-3--5---|
|-------------------|------------------|
|-------------------|------------------|
|-------------------|------------------|
|-------------------|------------------|
|
|-(3)---------------|-(3)--------------|
|-(0)---------------|-(0)--------------|
|-(0)---------------|-(0)--------------|
|-(0)---------------|-(0)--------------|
|-------------------|------------------|
|-------------------|------------------|


  Bm
|--2----(2)-2-3p2p0-|--2-----(2)-2-3p2p0-|
|-------------------|--------------------|
|-------------------|--------------------|
|-------------------|--------------------|
|-------------------|--------------------|
|-------------------|--------------------|
|
|-^2----------------|-(2)----------------|
|-^3----------------|-(3)----------------|
|-^4----------------|-(4)----------------|
|-^4----------------|-(4)----------------|
|-^2----------------|-(2)----------------|
|-------------------|--------------------|


|--2--3-5s7s5-3-2-3-|--2--3-2-3-2--0---|
|-------------------|------------------|
|-------------------|------------------|
|-------------------|------------------|
|-------------------|------------------|
|-------------------|------------------|
|
|-(2)---------------|-(2)--------------|
|-(3)---------------|-(3)--------------|
|-(4)---------------|-(4)--------------|
|-(4)---------------|-(4)--------------|
|-(2)---------------|-(2)--------------|
|-------------------|------------------|


  G#
|-------------------|--------------------|
|--4----(4)-4-6p4p3-|--4-----(4)-4-6p4p3-|
|-------------------|--------------------|
|-------------------|--------------------|
|-------------------|--------------------|
|-------------------|--------------------|
|
|-^4----------------|-(4)----------------|
|-^1----------------|-(1)----------------|
|-^1----------------|-(1)----------------|
|-^1----------------|-(1)----------------|
|-------------------|--------------------|
|-------------------|--------------------|


|-------3-4-3-------|--3--4-3-----------||
|--4--6-------6-4-6-|---------6-4--5---o||
|-------------------|-------------------||
|-------------------|-------------------||
|-------------------|------------------o||
|-------------------|-------------------||
|
|-(4)---------------|-(4)---------------||
|-(1)---------------|-(1)--------------o||
|-(1)---------------|-(1)---------------||
|-(1)---------------|-(1)---------------||
|-------------------|------------------o||
|-------------------|-------------------||


   Pre-Verse
    Q=180
    E5                              G5              E5
   2/2
    Gtr III
    PM----|         PM----|         PM----|         PM----|
||----------------|---------------|---------------|----------------|
||o---------------|---------------|---------------|----------------|
||----------------|---------------|---------------|----------------|
||----------2--2--|---------2--2--|---------5--5--|---------2--2---|
||o-2-2-2-2-2--2--|-2-2-2-2-2--2--|-5-5-5-5-5--5--|-2-2-2-2-2--2---|
||--0-0-0-0-0--0--|-0-0-0-0-0--0--|-3-3-3-3-3--3--|-0-0-0-0-0--0---|


  E5                              G#5             F5
  PM----|         PM----|         PM----|         PM----|
|---------------|---------------|---------------|----------------||
|---------------|---------------|---------------|---------------o||
|---------------|---------------|---------------|----------------||
|---------2--2--|---------2--2--|---------6--6--|---------3--3---||
|-2-2-2-2-2--2--|-2-2-2-2-2--2--|-6-6-6-6-6--6--|-3-3-3-3-3--3--o||
|-0-0-0-0-0--0--|-0-0-0-0-0--0--|-4-4-4-4-4--4--|-1-1-1-1-1--1---||


   Verse
    E5                              C5              A5
    PM----|         PM----|         PM----|         PM----|
||----------------|---------------|---------------|----------------|
||o---------------|---------------|---------------|----------------|
||----------------|---------------|---------5--5--|---------2--2---|
||----------2--2--|---------2--2--|-5-5-5-5-5--5--|-2-2-2-2-2--2---|
||o-2-2-2-2-2--2--|-2-2-2-2-2--2--|-3-3-3-3-3--3--|-0-0-0-0-0--0---|
||--0-0-0-0-0--0--|-0-0-0-0-0--0--|---------------|----------------|


  E5                              D5              B5
  PM----|         PM----|         PM----|         PM----|
|---------------|---------------|---------------|----------------||
|---------------|---------------|---------------|---------------o||
|---------------|---------------|---------7--7--|---------4--4---||
|---------2--2--|---------2--2--|-7-7-7-7-7--7--|-4-4-4-4-4--4---||
|-2-2-2-2-2--2--|-2-2-2-2-2--2--|-5-5-5-5-5--5--|-2-2-2-2-2--2--o||
|-0-0-0-0-0--0--|-0-0-0-0-0--0--|---------------|----------------||


   Chorus
    E5
    PM------|           PM------|
||--------------------|-------------------|
||o-------------------|-------------------|
||--------------------|-------------------|
||------------2---2---|-----------2---2---|
||o-2-2---2-2-2---2---|-2-2---2-2-2---2---|
||--0-0---0-0-0---0---|-0-0---0-0-0---0---|
|
|   Gtr I
||----7-7-7-7-8-7-5-7-|---7-7-7-7-8-7-5-7-|
||o-5-----------------|-5-----------------|
||--------------------|-------------------|
||--------------------|-------------------|
||o-------------------|-------------------|
||--------------------|-------------------|


  G5                   E5
  PM----|              PM----|
|--------------------|----------------|
|--------------------|----------------|
|--------------------|----------------|
|---------5--5-------|---------2--2---|
|-5-5-5-5-5--5-------|-2-2-2-2-2--2---|
|-3-3-3-3-3--3-------|-0-0-0-0-0--0---|
|
|-3----------5p3h5p3-|----------------|
|--------------------|-5----------4---|
|--------------------|----------------|
|--------------------|----------------|
|--------------------|----------------|
|--------------------|----------------|


  E5                                      G#5                  F5
  PM------|           PM------|           PM----|              PM----|
|-------------------|-------------------|--------------------|----------------||
|-------------------|-------------------|--------------------|---------------o||
|-------------------|-------------------|--------------------|----------------||
|-----------2---2---|-----------2---2---|---------6--6-------|---------3--3---||
|-2-2---2-2-2---2---|-2-2---2-2-2---2---|-6-6-6-6-6--6-------|-3-3-3-3-3--3--o||
|-0-0---0-0-0---0---|-0-0---0-0-0---0---|-4-4-4-4-4--4-------|-1-1-1-1-1--1---||
|
|---7-7-7-7-8-7-5-7-|---7-7-7-7-8-7-5-7-|-4----------6p4h6p4-|----------------||
|-5-----------------|-5-----------------|--------------------|-6-------------o||
|-------------------|-------------------|--------------------|----------------||
|-------------------|-------------------|--------------------|----------------||
|-------------------|-------------------|--------------------|---------------o||
|-------------------|-------------------|--------------------|----------------||


   Verse
    E5                              C5              A5
    PM----|         PM----|         PM----|         PM----|
||----------------|---------------|---------------|----------------|
||o---------------|---------------|---------------|----------------|
||----------------|---------------|---------5--5--|---------2--2---|
||----------2--2--|---------2--2--|-5-5-5-5-5--5--|-2-2-2-2-2--2---|
||o-2-2-2-2-2--2--|-2-2-2-2-2--2--|-3-3-3-3-3--3--|-0-0-0-0-0--0---|
||--0-0-0-0-0--0--|-0-0-0-0-0--0--|---------------|----------------|


  E5                              D5              B5
  PM----|         PM----|         PM----|         PM----|
|---------------|---------------|---------------|----------------||
|---------------|---------------|---------------|---------------o||
|---------------|---------------|---------7--7--|---------4--4---||
|---------2--2--|---------2--2--|-7-7-7-7-7--7--|-4-4-4-4-4--4---||
|-2-2-2-2-2--2--|-2-2-2-2-2--2--|-5-5-5-5-5--5--|-2-2-2-2-2--2--o||
|-0-0-0-0-0--0--|-0-0-0-0-0--0--|---------------|----------------||


   Interlude
    E5
    PM------|           PM------|
||--------------------|------------------|
||o-------------------|------------------|
||--------------------|------------------|
||------------2---2---|-----------2---2--|
||o-2-2---2-2-2---2---|-2-2---2-2-2---2--|
||--0-0---0-0-0---0---|-0-0---0-0-0---0--|
|
|   Gtr I
||------------0-1-0---|------------------|
||o-0-0-0-0-1-------3-|-0-0-0-0-3-5-3-5--|
||--------------------|------------------|
||--------------------|------------------|
||o-------------------|------------------|
||--------------------|------------------|


  C5                  A5
  PM------|           PM------|
|-------------------|-------------------|
|-------------------|-------------------|
|-----------5---5---|-----------2---2---|
|-5-5---5-5-5---5---|-2-2---2-2-2---2---|
|-3-3---3-3-3---3---|-0-0---0-0-0---0---|
|-------------------|-------------------|
|
|-----------0-1-0---|-------------------|
|-0-0-0-0-1-------3-|-0-0-0-0-3-5-3-5---|
|-------------------|-------------------|
|-------------------|-------------------|
|-------------------|-------------------|
|-------------------|-------------------|


  E5                  E5
  PM------|           PM------|
|-------------------|------------------|
|-------------------|------------------|
|-------------------|------------------|
|-----------2---2---|-----------2---2--|
|-2-2---2-2-2---2---|-2-2---2-2-2---2--|
|-0-0---0-0-0---0---|-0-0---0-0-0---0--|
|
|-----------0-1-0---|------------------|
|-0-0-0-0-1-------3-|-0-0-0-0-3-5-3-5--|
|-------------------|------------------|
|-------------------|------------------|
|-------------------|------------------|
|-------------------|------------------|


  D5                  B5
  PM------|           PM------|
|-------------------|-------------------||
|-------------------|------------------o||
|-----------7---7---|-----------4---4---||
|-7-7---7-7-7---7---|-4-4---4-4-4---4---||
|-5-5---5-5-5---5---|-2-2---2-2-2---2--o||
|-------------------|-------------------||
|
|-----------0-1-0---|-------------------||
|-0-0-0-0-1-------3-|-0-0-0-0-3-5-3-5--o||
|-------------------|-------------------||
|-------------------|-------------------||
|-------------------|------------------o||
|-------------------|-------------------||


    D5
      PM----|   PM--|     PM----|   PM-----
||--------------------|-------------------|
||o-------------------|-------------------|
||--7---------7-------|-7---------7-------|
||--7-7---7-7-7-7-7-7-|-7-7---7-7-7-7-7-7-|
||o-5-5---5-5-5-5-5-5-|-5-5---5-5-5-5-5-5-|
||--------------------|-------------------|
|
||--------------------|-------------------|
||o-------------------|-------------------|
||------------7-8-7-5-|---------5-7-5-7---|
||--7-7-7-7-8---------|-7-7-7-7-----------|
||o-------------------|-------------------|
||--------------------|-------------------|


  Bb5                 G5
 ---------|           PM------|
|-------------------|--------------------||
|-------------------|-------------------o||
|-----------3---3---|--------------------||
|-3-3---3-3-3---3---|-----------5---5----||
|-1-1---1-1-1---1---|-5-5---5-5-5---5---o||
|-------------------|-3-3---3-3-3---3----||
|
|-------------------|--------------------||
|-------------------|-------------------o||
|-----------7-8-7-5-|---------5-7-5-7----||
|-7-7-7-7-8---------|-7-7-7-7------------||
|-------------------|-------------------o||
|-------------------|--------------------||


   Breakdown
    D5
||-----------|------------|------------|--------|
||o----------|------------|------------|--------|
||--7--------|-(7)--------|-(7)--------|-(7)----|
||--7--------|-(7)--------|-(7)--------|-(7)----|
||o-5--------|-(5)--------|-(5)--------|-(5)----|
||-----------|------------|------------|--------|


  D5
|----------|------------|------------|--------|
|----------|------------|------------|--------|
|-7--------|-(7)--------|-(7)--------|-(7)----|
|-7--------|-(7)--------|-(7)--------|-(7)----|
|-5--------|-(5)--------|-(5)--------|-(5)----|
|----------|------------|------------|--------|


  A5
|----------|------------|------------|--------|
|----------|------------|------------|--------|
|----------|------------|------------|--------|
|-7--------|-(7)--------|-(7)--------|-(7)----|
|-7--------|-(7)--------|-(7)--------|-(7)----|
|-5--------|-(5)--------|-(5)--------|-(5)----|


  A5
|----------|------------|------------|---------||
|----------|------------|------------|--------o||
|----------|------------|------------|---------||
|-7--------|-(7)--------|-(7)--------|-(7)-----||
|-7--------|-(7)--------|-(7)--------|-(7)----o||
|-5--------|-(5)--------|-(5)--------|-(5)-----||


  D5
|-----------------|-------------------|-------------------|-------------------|
|-----------------|-------------------|-------------------|-------------------|
|-7---------------|-(7)---------------|-(7)---------------|-(7)---------------|
|-7---------------|-(7)---------------|-(7)---------------|-(7)---------------|
|-5---------------|-(5)---------------|-(5)---------------|-(5)---------------|
|-----------------|-------------------|-------------------|-------------------|
|
| Gtr IV
|   PM|   PM|   PM      PM|   PM|   PM      PM|   PM|   PM      PM  PM      PM
|-----------------|-------------------|-------------------|-------------------|
|-----------------|-------------------|-------------------|-------------------|
|-2-----2-----2---|--4------4-----4---|--5------5-----5---|--4----4---4-5-4---|
|-0-0-0-0-0-0-0-0-|--0--0-0-0-0-0-0-0-|--0--0-0-0-0-0-0-0-|--0--0-0-0-0-0-0-0-|
|-----------------|-------------------|-------------------|-------------------|
|-----------------|-------------------|-------------------|-------------------|


  D5
|-----------------|-------------------|-------------------|-------------------|
|-----------------|-------------------|-------------------|-------------------|
|-7---------------|-(7)---------------|-(7)---------------|-(7)---------------|
|-7---------------|-(7)---------------|-(7)---------------|-(7)---------------|
|-5---------------|-(5)---------------|-(5)---------------|-(5)---------------|
|-----------------|-------------------|-------------------|-------------------|
|
|   PM|   PM|   PM      PM|   PM|   PM      PM|   PM|   PM      PM  PM      PM
|-----------------|-------------------|-------------------|-------------------|
|-----------------|-------------------|-------------------|-------------------|
|-2-----2-----2---|--4------4-----4---|--5------5-----5---|--4----4---4-5-4---|
|-0-0-0-0-0-0-0-0-|--0--0-0-0-0-0-0-0-|--0--0-0-0-0-0-0-0-|--0--0-0-0-0-0-0-0-|
|-----------------|-------------------|-------------------|-------------------|
|-----------------|-------------------|-------------------|-------------------|


  A5
|-----------------|-------------------|-------------------|-------------------|
|-----------------|-------------------|-------------------|-------------------|
|-----------------|-------------------|-------------------|-------------------|
|-7---------------|-(7)---------------|-(7)---------------|-(7)---------------|
|-7---------------|-(7)---------------|-(7)---------------|-(7)---------------|
|-5---------------|-(5)---------------|-(5)---------------|-(5)---------------|
|
|   PM|   PM|   PM      PM|   PM|   PM      PM|   PM|   PM      PM  PM      PM
|-----------------|-------------------|-------------------|-------------------|
|-----------------|-------------------|-------------------|-------------------|
|-----------------|-------------------|-------------------|-------------------|
|-2-----2-----2---|--4------4-----4---|--5------5-----5---|--4----4---4-5-4---|
|-0-0-0-0-0-0-0-0-|--0--0-0-0-0-0-0-0-|--0--0-0-0-0-0-0-0-|--0--0-0-0-0-0-0-0-|
|-----------------|-------------------|-------------------|-------------------|


  A5
|-----------------|-------------------|-------------------|-------------------|
|-----------------|-------------------|-------------------|-------------------|
|-----------------|-------------------|-------------------|-------------------|
|-7---------------|-(7)---------------|-(7)---------------|-(7)---------------|
|-7---------------|-(7)---------------|-(7)---------------|-(7)---------------|
|-5---------------|-(5)---------------|-(5)---------------|-(5)---------------|
|
|   PM|   PM|   PM      PM|   PM|   PM      PM|   PM|   PM      PM  PM      PM
|-----------------|-------------------|-------------------|-------------------|
|-----------------|-------------------|-------------------|-------------------|
|-----------------|-------------------|-------------------|-------------------|
|-2-----2-----2---|--4------4-----4---|--5------5-----5---|--4----4---4-5-4---|
|-0-0-0-0-0-0-0-0-|--0--0-0-0-0-0-0-0-|--0--0-0-0-0-0-0-0-|--0--0-0-0-0-0-0-0-|
|-----------------|-------------------|-------------------|-------------------|


 Bridge
  D5         Bb5 G5    D5             Bb5 G5    D5
|----------|-------------|----------|-------------|
|----------|-------------|----------|-------------|
|-7--------|-3---------7-|-7--------|-3---------7-|
|-7--------|-3---5--5--7-|-7--------|-3---5--5--7-|
|-5--------|-1---5--5--5-|-5--------|-1---5--5--5-|
|----------|-----3--3----|----------|-----3--3----|


  D5         Bb5 G5    D5             Bb5 G5
|----------|-------------|----------|-------------|
|----------|-------------|----------|-------------|
|-7--------|-3---------7-|-7--------|-3-----------|
|-7--------|-3---5--5--7-|-7--------|-3---5--5--5-|
|-5--------|-1---5--5--5-|-5--------|-1---5--5--5-|
|----------|-----3--3----|----------|-----3--3--3-|


  E5
 6/8
|-----------------|-----------------|-----------------|--------------|
|-----------------|-----------------|-----------------|--------------|
|-9---------------|-9---------------|-9---------------|-9----9--9-9--|
|-9---------------|-9---------------|-9---------------|-9----9--9-9--|
|-7---------------|-7---------------|-7---------------|-7----7--7-7--|
|-----------------|-----------------|-----------------|--------------|
|
| Gtr I
|-----------------|-----------------|-----------------|--------------|
|-----------------|-----------------|-----------------|--------------|
|-----------------|-----------------|-----------------|--------------|
|---9-10-9-7-9----|---9-10-9-7-9----|---9-10-9-7-9----|-9----7-------|
|-7------------10-|-7------------10-|-7------------10-|---10---10-9--|
|-----------------|-----------------|-----------------|--------------|


  E5
|-----------------|-----------------|-----------------|--------------|
|-----------------|-----------------|-----------------|--------------|
|-9---------------|-9---------------|-9---------------|-9----9--9-9--|
|-9---------------|-9---------------|-9---------------|-9----9--9-9--|
|-7---------------|-7---------------|-7---------------|-7----7--7-7--|
|-----------------|-----------------|-----------------|--------------|
|
|-----------------|-----------------|-----------------|--------------|
|-----------------|-----------------|-----------------|--------------|
|-----------------|-----------------|-----------------|--------------|
|---9-10-9-7-9----|---9-10-9-7-9----|---9-10-9-7-9----|-9----7-------|
|-7------------10-|-7------------10-|-7------------10-|---10---10-9--|
|-----------------|-----------------|-----------------|--------------|


  B5
|-----------------|-----------------|-----------------|---------------|
|-----------------|-----------------|-----------------|---------------|
|-----------------|-----------------|-----------------|---------------|
|-9---------------|-9---------------|-9---------------|-9----9-9-9----|
|-9---------------|-9---------------|-9---------------|-9----9-9-9----|
|-7---------------|-7---------------|-7---------------|-7----7-7-7----|
|
|-----------------|-----------------|-----------------|---------------|
|-----------------|-----------------|-----------------|---------------|
|-----------------|-----------------|-----------------|---------------|
|---9-10-9-7-9----|---9-10-9-7-9----|---9-10-9-7-9----|---------------|
|--------------10-|--------------10-|--------------10-|--------7-9-10-|
|-7---------------|-7---------------|-7---------------|-7-9-10--------|


  B5
|-----------------|-----------------|-----------------|---------------|
|-----------------|-----------------|-----------------|---------------|
|-----------------|-----------------|-----------------|---------------|
|-9---------------|-9---------------|-9---------------|-9----9-9-9----|
|-9---------------|-9---------------|-9---------------|-9----9-9-9----|
|-7---------------|-7---------------|-7---------------|-7----7-7-7----|
|
|-----------------|-----------------|-----------------|---------------|
|-----------------|-----------------|-----------------|---------------|
|-----------------|-----------------|-----------------|---------------|
|---9-10-9-7-9----|---9-10-9-7-9----|---9-10-9-7-9----|---------------|
|--------------10-|--------------10-|--------------10-|--------7-9-10-|
|-7---------------|-7---------------|-7---------------|-7-9-10--------|


  E5
|-----------------|-----------------|-----------------|--------------|
|-----------------|-----------------|-----------------|--------------|
|-9--------9-9--9-|-9--------9-9--9-|-9--------9-9--9-|-9----9--9-9--|
|-9--------9-9--9-|-9--------9-9--9-|-9--------9-9--9-|-9----9--9-9--|
|-7--------7-7--7-|-7--------7-7--7-|-7--------7-7--7-|-7----7--7-7--|
|-----------------|-----------------|-----------------|--------------|
|
|-----------------|-----------------|-----------------|--------------|
|-----------------|-----------------|-----------------|--------------|
|-----------------|-----------------|-----------------|--------------|
|---9-10-9-7-9----|---9-10-9-7-9----|---9-10-9-7-9----|-9----7-------|
|-7------------10-|-7------------10-|-7------------10-|---10---10-9--|
|-----------------|-----------------|-----------------|--------------|


  E5
|-----------------|-----------------|-----------------|--------------|
|-----------------|-----------------|-----------------|--------------|
|-9--------9-9--9-|-9--------9-9--9-|-9--------9-9--9-|-9----9--9-9--|
|-9--------9-9--9-|-9--------9-9--9-|-9--------9-9--9-|-9----9--9-9--|
|-7--------7-7--7-|-7--------7-7--7-|-7--------7-7--7-|-7----7--7-7--|
|-----------------|-----------------|-----------------|--------------|
|
|-----------------|-----------------|-----------------|--------------|
|-----------------|-----------------|-----------------|--------------|
|-----------------|-----------------|-----------------|--------------|
|---9-10-9-7-9----|---9-10-9-7-9----|---9-10-9-7-9----|-9----7-------|
|-7------------10-|-7------------10-|-7------------10-|---10---10-9--|
|-----------------|-----------------|-----------------|--------------|


  B5
|-----------------|-----------------|-----------------|---------------|
|-----------------|-----------------|-----------------|---------------|
|-----------------|-----------------|-----------------|---------------|
|-9--------9-9--9-|-9--------9-9--9-|-9--------9-9--9-|-9----9-9-9----|
|-9--------9-9--9-|-9--------9-9--9-|-9--------9-9--9-|-9----9-9-9----|
|-7--------7-7--7-|-7--------7-7--7-|-7--------7-7--7-|-7----7-7-7----|
|
|-----------------|-----------------|-----------------|---------------|
|-----------------|-----------------|-----------------|---------------|
|-----------------|-----------------|-----------------|---------------|
|---9-10-9-7-9----|---9-10-9-7-9----|---9-10-9-7-9----|---------------|
|--------------10-|--------------10-|--------------10-|--------7-9-10-|
|-7---------------|-7---------------|-7---------------|-7-9-10--------|


  B5
|-----------------|-----------------|-----------------|---------------|
|-----------------|-----------------|-----------------|---------------|
|-----------------|-----------------|-----------------|---------------|
|-9--------9-9--9-|-9--------9-9--9-|-9--------9-9--9-|-9----9-9-9----|
|-9--------9-9--9-|-9--------9-9--9-|-9--------9-9--9-|-9----9-9-9----|
|-7--------7-7--7-|-7--------7-7--7-|-7--------7-7--7-|-7----7-7-7----|
|
|-----------------|-----------------|-----------------|---------------|
|-----------------|-----------------|-----------------|---------------|
|-----------------|-----------------|-----------------|---------------|
|---9-10-9-7-9----|---9-10-9-7-9----|---9-10-9-7-9----|---------------|
|--------------10-|--------------10-|--------------10-|--------7-9-10-|
|-7---------------|-7---------------|-7---------------|-7-9-10--------|


 Guitar Break
  Q=200
  E5
 1/8 4/4
       PM-|   PM----|      PM----|   PM----|      PM-
|---|------------------------|----------------------|
|---|------------------------|----------------------|
|---|-------9----------9-----|-----9----------9-----|
|-9-|-(9)-9-9-9--9--9--9---9-|-9-9-9-9--9--9--9---9-|
|-7-|-(7)-7-7-7--7--7--7---7-|-7-7-7-7--7--7--7---7-|
|---|------------------------|----------------------|
|
|---|------------------------|----------------------|
|---|------------------------|----------------------|
|---|------------------------|----------------------|
|-9-|-(9)-------(9)-9-10p9p7-|-9-------(9)-9-10p9p7-|
|---|------------------------|----------------------|
|---|------------------------|----------------------|


                                       D5
 ---|   PM----|      PM----|   PM--|
|----------------------|------------------|
|----------------------|------------------|
|-----9----------9-----|-----9-------9-7--|
|-9-9-9-9--9--9--9---9-|-9-9-9-9-9-9-9-7--|
|-7-7-7-7--7--7--7---7-|-7-7-7-7-7-7-7-5--|
|----------------------|------------------|
|
|----------------------|------------------|
|----------------------|------------------|
|----------------------|------------------|
|-9-------(9)-9-10p9p7-|-9-------------7--|
|----------------------|------------------|
|----------------------|------------------|


      PM  PM----|     PM----|   PM----|     PM-
|-----------------------|---------------------|
|-----------------------|---------------------|
|-(7)---7---------7-----|-----7---------7-----|
|-(7)-7-7-7--7--7-7---7-|-7-7-7-7--7--7-7---7-|
|-(5)-5-5-5--5--5-5---5-|-5-5-5-5--5--5-5---5-|
|-----------------------|---------------------|
|
|-----------------------|---------------------|
|-----------------------|---------------------|
|-----------------------|---------------------|
|-(7)-------(7)-7-8p7p5-|-7-------(7)-7-8p7p5-|
|-----------------------|---------------------|
|-----------------------|---------------------|


                                      E5
 ---|   PM----|     PM----|   PM--|
|---------------------|------------------|
|---------------------|------------------|
|-----7---------7-----|-----7-------7-9--|
|-7-7-7-7--7--7-7---7-|-7-7-7-7-7-7-7-9--|
|-5-5-5-5--5--5-5---5-|-5-5-5-5-5-5-5-7--|
|---------------------|------------------|
|
|---------------------|------------------|
|---------------------|------------------|
|---------------------|------------------|
|-7-------(7)-7-8p7p5-|-7-------------9--|
|---------------------|------------------|
|---------------------|------------------|

[ Tab from: http://www.guitartabs.cc/tabs/i/iron_maiden/to_tame_a_land_tab.html ]
      PM  PM----|      PM----|   PM----|      PM-
|------------------------|----------------------|
|------------------------|----------------------|
|-(9)---9----------9-----|-----9----------9-----|
|-(9)-9-9-9--9--9--9---9-|-9-9-9-9--9--9--9---9-|
|-(7)-7-7-7--7--7--7---7-|-7-7-7-7--7--7--7---7-|
|------------------------|----------------------|
|
|------------------------|----------------------|
|------------------------|----------------------|
|------------------------|----------------------|
|-(9)-------(9)-9-10p9p7-|-9-------(9)-9-10p9p7-|
|------------------------|----------------------|
|------------------------|----------------------|


                                                  D5
 ---|       PM--|       PM----|       PM--|
|-------------------------|-------------------------|
|-------------------------|-------------------------|
|-------9-----------9-----|-------9-----------9---7-|
|-9--9--9---9-9--9--9---9-|-9--9--9---9-9--9--9---7-|
|-7--7--7---7-7--7--7---7-|-7--7--7---7-7--7--7---5-|
|-------------------------|-------------------------|
|
|-------------------------|-------------------------|
|-------------------------|-------------------------|
|-------------------------|-------------------------|
|-9-10-10p9p7-9-10-10p9p7-|-9-10-10p9p7-9-10-10p9p7-|
|-------------------------|-------------------------|
|-------------------------|-------------------------|


      PM  PM----|     PM----|   PM----|     PM-
|-----------------------|---------------------|
|-----------------------|---------------------|
|--7----7---------7-----|-----7---------7-----|
|--7--7-7-7--7--7-7---7-|-7-7-7-7--7--7-7---7-|
|--5--5-5-5--5--5-5---5-|-5-5-5-5--5--5-5---5-|
|-----------------------|---------------------|
|
|-----------------------|---------------------|
|-----------------------|---------------------|
|-----------------------|---------------------|
|-(7)-------(7)-7-8p7p5-|-7-------(7)-7-8p7p5-|
|-----------------------|---------------------|
|-----------------------|---------------------|


                                          E5
 ---|     PM--|     PM----|     PM--|
|---------------------|--------------------------|
|---------------------|--------------------------|
|-----7---------7-----|-----7---------7----9-----|
|-7-7-7---7-7-7-7---7-|-7-7-7---7-7-7-7----9-----|
|-5-5-5---5-5-5-5---5-|-5-5-5---5-5-5-5----7-----|
|---------------------|--------------------------|
|
|---------------------|-------------------10b12==|
|---------------------|--------------------------|
|---------------------|--------------------------|
|-7-8-8p7p5-7-8-8p7p5-|-7-8-8p7p5-7-8-8p7--------|
|---------------------|--------------------------|
|---------------------|--------------------------|


 Guitar Solo 1
       PM  PM-----|     PM-----------|   PM---------|            PM-------
|-----------------------------|------------------------------------------|
|-----------------------------|------------------------------------------|
|---9----9-----------9--------|--------9-------------------9-------------|
|---9--9-9-9---9---9-9--9-----|---9--9-9-9---9-------9-----9-----9-------|
|---7--7-7-7---7---7-7--7-----|---7--7-7-7---7-------7-----7-----7-------|
|-----------------------------|------------------------------------------|
|
|                                 ~~~~~~~~~~~~~~~
|-(10)-------(10)r10-7-10b12==|=(10)-------(10)r-12-15-12----12-------12-|
|-----------------------------|---------------------------15----15b17----|
|-----------------------------|------------------------------------------|
|-----------------------------|------------------------------------------|
|-----------------------------|------------------------------------------|
|-----------------------------|------------------------------------------|


                                                                              D5
 -------|               PM-----|          PM----------------|   PM------|
|----------------------------------------------|-----------------------------------|
|----------------------------------------------|-----------------------------------|
|--------------9--------------------9----------|--------------9-------------9--7---|
|--9-----9-----9--------9----9---9--9-----9----|---9--------9-9-9---9----9--9--7---|
|--7-----7-----7--------7----7---7--7-----7----|---7--------7-7-7---7----7--7--5---|
|----------------------------------------------|-----------------------------------|
|
|                                                  ~~~~~~~~~~~
|-------------10-------------------------------|-----------------------------------|
|-15-12-15-12----12-11----------------10-12-10-|-(10)pb11.5r======(10)\-10-12-15---|
|----------------------14b16r==(14)------------|-----------------------------------|
|----------------------------------------------|-----------------------------------|
|----------------------------------------------|-----------------------------------|
|----------------------------------------------|-----------------------------------|


        PM            PM------------|          PM----
|---------------------------------------------------|
|---------------------------------------------------|
|--7----------7---------------------------7---------|
|--7----7-----7-------7-----7-------7-----7----7----|
|--5----5-----5-------5-----5-------5-----5----5----|
|---------------------------------------------------|
|
|-12-15---12----------------------------------------|
|------------15-15b17---15-12---------12-15-12---15-|
|-----------------------------14b16-----------------|
|---------------------------------------------------|
|---------------------------------------------------|
|---------------------------------------------------|


                                                                             E5
 ----------|            PM--|   PM--------|   PM--|     PM-------|   PM--|
|---------------------------------|-----------------------|-------------------------|
|---------------------------------|-----------------------|-------------------------|
|----------------7------------7---|---------7--------7----|--------7-------7-9------|
|--7-------7-----7------7-7-7-7-7-|---7---7-7-7-7-7--7--7-|---7--7-7-7-7-7-7-9------|
|--5-------5-----5------5-5-5-5-5-|---5---5-5-5-5-5--5--5-|---5--5-5-5-5-5-5-7------|
|---------------------------------|-----------------------|-------------------------|
|
|                                                             ~~~~
|---------------------------------|-----------------------|-------------------------|
|-12---------12-14pb16============|=(14)r-----------------|-------------------------|
|----14b16------14b16=============|=(14)r-----------12-14-|-(14)-------------4tr5---|
|---------------------------------|-----------------------|-------------------------|
|---------------------------------|-----------------------|-------------------------|
|---------------------------------|-----------------------|-------------------------|


         PM  PM-----|   PM-------|   PM------|   PM-
|-------------------------|------------------------|
|-------------------------|------------------------|
|-(9)------9----------9---|--------9-----------9---|
|-(9)----9-9-9-9----9-9-9-|-9----9-9-9-9-----9-9-9-|
|-(7)----7-7-7-7----7-7-7-|-7----7-7-7-7-----7-7-7-|
|-------------------------|------------------------|
|
|-------------------------|------------------------|
|-------------------------|------------------------|
|-(4tr5)-------5tr7-------|-7tr9-------9tr11-------|
|-------------------------|------------------------|
|-------------------------|------------------------|
|-------------------------|------------------------|


                                                                     D5
 ------|          PM------|               PM-----|   PM-----|
|-------------------------------------------|---------------------------|
|-------------------------------------------|---------------------------|
|------------9-----------------------9------|------9------------9-----7-|
|-9----9-----9----9-----9-9----------9----9-|--9-9-9-9---9---9--9-----7-|
|-7----7-----7----7-----7-7----------7----7-|--7-7-7-7---7---7--7-----5-|
|-------------------------------------------|---------------------------|
|
|-------------------10-12---10b12==(10)r-14-|-15-------(15)-15-14h15p14-|
|-----------10-12---------------------------|---------------------------|
|-9-11---12---------------------------------|---------------------------|
|-------------------------------------------|---------------------------|
|-------------------------------------------|---------------------------|
|-------------------------------------------|---------------------------|


         PM       PM------|         PM------|   PM--|    PM----
|-------------------------------------|-----------------------|
|-------------------------------------|-----------------------|
|-(7)-------7-----------------7-------|-------7-------7-------|
|-(7)----7--7-----7--7-----7--7-----7-|--7--7-7-7-7-7-7--7----|
|-(5)----5--5-----5--5-----5--5-----5-|--5--5-5-5-5-5-5--5----|
|-------------------------------------|-----------------------|
|
|-14h15p14-14h15p14-14h15p14-14h15p14-|-17\-------------------|
|-------------------------------------|---------------5S14-16-|
|-------------------------------------|-----------------------|
|-------------------------------------|-----------------------|
|-------------------------------------|-----------------------|
|-------------------------------------|-----------------------|


                                                                                              E5
 -------|            PM---------|            PM-----------|            PM---------|
|-------------------------------------------------|-------------------------------------------------|
|-------------------------------------------------|-------------------------------------------------|
|--------------7-----------------------7----------|--------------7-----------------------7-----9----|
|--7-----7-----7-----7-----7-----7-----7-----7----|--7-----7-----7-----7-----7-----7-----7-----9----|
|--5-----5-----5-----5-----5-----5-----5-----5----|--5-----5-----5-----5-----5-----5-----5-----7----|
|-------------------------------------------------|-------------------------------------------------|
|
|-------------------------------------------------|-------------------------------------------------|
|-17p16p14-16h17p16p14-16h17p16p14-16h17p16h17p16h|=17p16h17p16h17p16h17p16h17p16h17p16h17p14-------|
|-------------------------------------------------|-------------------------------------------16----|
|-------------------------------------------------|-------------------------------------------------|
|-------------------------------------------------|-------------------------------------------------|
|-------------------------------------------------|-------------------------------------------------|


 Guitar Solo 2
          PM      PM------|       PM--------|       PM------|       PM---
|-------------------------------------|---------------------------------|
|-------------------------------------|---------------------------------|
|--(9)--------9---------------9-------|---------9---------------9-------|
|--(9)----9---9---9---9---9---9---9---|-9---9---9---9---9---9---9---9---|
|--(7)----7---7---7---7---7---7---7---|-7---7---7---7---7---7---7---7---|
|-------------------------------------|---------------------------------|
|
|-------------------------------------|---------------------------------|
|---7p==5p==0-8p5p==0-7p5p==0-8p5p==0-|-7p5p==0-8p5p==0-7p5p==0-8p5p==0-|
|-(16)\-------------------------------|---------------------------------|
|-------------------------------------|---------------------------------|
|-------------------------------------|---------------------------------|
|-------------------------------------|---------------------------------|


                                                             D5
 -------|        PM------|       PM--------|       PM----|
|------------------------------------|--------------------------|
|------------------------------------|--------------------------|
|------------9---------------9-------|---------9-----------9-7--|
|--9----9----9---9---9---9---9---9---|-9---9---9---9---9-9-9-7--|
|--7----7----7---7---7---7---7---7---|-7---7---7---7---7-7-7-5--|
|------------------------------------|--------------------------|
|
|                                                      ~
|------------------------------------|--------------------------|
|-12p10p==0-10p8p==0-8p7p==0-7-5---0-|-5-3---0------------------|
|------------------------------------|---------5-4--------------|
|------------------------------------|---------------5-------0--|
|------------------------------------|-----------------7--------|
|------------------------------------|--------------------------|


        PM  PM-----|   PM-------|   PM-----|   PM-
|------------------------|-----------------------|
|------------------------|-----------------------|
|-(7)-----7----------7---|--------7----------7---|
|-(7)---7-7-7-7----7-7-7-|-7----7-7-7-7----7-7-7-|
|-(5)---5-5-5-5----5-5-5-|-5----5-5-5-5----5-5-5-|
|------------------------|-----------------------|
|
|------------------------|-----------------------|
|------------------------|-----------------------|
|------------------------|-----------------------|
|--0tr4-------0tr5-------|-0tr7-------0tr8-------|
|------------------------|-----------------------|
|------------------------|-----------------------|


                                       E5
 ------|   PM--|   PM------|   PM--|
|--------------------|----------------------|
|--------------------|----------------------|
|--------7-------7---|-------7-------7-9----|
|-7----7-7-7-7-7-7-7-|--7--7-7-7-7-7-7-9----|
|-5----5-5-5-5-5-5-5-|--5--5-5-5-5-5-5-7----|
|--------------------|----------------------|
|
|            ~                   ~~~~~~~~~~~
|--------------------|----------------------|
|--------------------|-----------------5----|
|--------------------|-----------------7b9==|
|-0tr7-------5-----4-|-(4)-5-4--------------|
|--------------------|---------6-5----------|
|--------------------|----------------------|


       PM  PM-----|    PM------------|    PM-----|    PM-----
|----------------------------|------------------------------|
|----------------------------|------------------------------|
|--9-----9----------9--------|---------9-----------9--------|
|--9---9-9-9----9-9-9--9-----|---9---9-9--9----9-9-9--9-----|
|--7---7-7-7----7-7-7--7-----|---7---7-7--7----7-7-7--7-----|
|----------------------------|------------------------------|
|
|  ~~~~~~~~~~~~~~~~~~~~~~~~~~~~~~~~~~~~~~~~~~~~~~~~~~~~~~~~~~
|----------------------------|------------------------------|
|-(5)------7-----------8-----|--(8)------10----------12-----|
|-(7)r-----9b11-------10b12==|=(10)r-----12b14-------14b16==|
|----------------------------|------------------------------|
|----------------------------|------------------------------|
|----------------------------|------------------------------|


                                                       D5
 -------|    PM-----|    PM------------|    PM-----|
|------------------------------|------------------------------|
|------------------------------|------------------------------|
|---------9-----------9--------|---------9-----------9--7-----|
|---9---9-9--9----9-9-9--9-----|---9---9-9--9----9-9-9--7-----|
|---7---7-7--7----7-7-7--7-----|---7---7-7--7----7-7-7--5-----|
|------------------------------|------------------------------|
|
|~~~~~~~~~~~~~~~~~~~~~~~~~~~~~~~~~~~~~~~~~~~~~~~~
|------------------------------|------------------------------|
|-(12)------13----------15-----|-(15)------17----------17-----|
|-(14)r-----15b17-------17b19==|=(17)r-----19b21-------19b21==|
|------------------------------|------------------------------|
|------------------------------|------------------------------|
|------------------------------|------------------------------|


        PM       PM------|            PM--------|         PM---------|         PM----
|---------------------------------------|-------------------------------------------|
|---------------------------------------|-------------------------------------------|
|--(7)-----7--------------------7-------|--------------7-----------------7----------|
|--(7)--7--7-----7-----7--7-----7-----7-|--7-----7-----7--7-----7-----7--7-----7----|
|--(5)--5--5-----5-----5--5-----5-----5-|--5-----5-----5--5-----5-----5--5-----5----|
|---------------------------------------|-------------------------------------------|
|
|---------------------------------------|-------------------------------------------|
|-(17)----20-17-------17-20-17-------17-|-20-17-------17-20-17-------17-20-17-------|
|-(19)r---------19b21----------19b21----|-------19b21----------19b21----------19b21-|
|---------------------------------------|-------------------------------------------|
|---------------------------------------|-------------------------------------------|
|---------------------------------------|-------------------------------------------|


                                                                E5
                                                                Gtr I
 ----|            PM------|       PM-----|       PM---|
|-----------------------------------|-----------------------------|
|-----------------------------------|---------------------------5-|
|-----------7----------------7------|-------7-----------------7---|
|--7--7-----7-----7--7-----7-7----7-|--7--7-7----7--7---7-----7---|
|--5--5-----5-----5--5-----5-5----5-|--5--5-5----5--5---5-----5---|
|-----------------------------------|-----------------------------|
|
|                                                               Gtr V
|-----------------------------------|----17---19---20-(20)b22-----|
|-17-20-17-------17-20-17-17---19---|-20------------------------8-|
|----------19b21--------------------|-----------------------------|
|-----------------------------------|-----------------------------|
|-----------------------------------|-----------------------------|
|-----------------------------------|-----------------------------|


   Interlude
                                                                      D5
||--------7---8---7--|-5---7---------|-------7---8---7--|-5---7----------|
||o-(5)--------------|-------------5-|-(5)--------------|-------------3--|
||-------------------|--------4--7---|------------------|--------4--7----|
||-------------------|---------------|------------------|----------------|
||o------------------|---------------|------------------|----------------|
||-------------------|---------------|------------------|----------------|
|
||-------10--12--10--|-8--10---------|------10--12--10--|-8--10----------|
||o-(8)--------------|--------8--7-8-|-(8)--------------|--------8--7-6--|
||-------------------|---------------|------------------|----------------|
||-------------------|---------------|------------------|----------------|
||o------------------|---------------|------------------|----------------|
||-------------------|---------------|------------------|----------------|


                                                              F#5
|------5---6--5--|-3--5---------|------5---6--5--|-3--5----------|
|-(3)------------|------------3-|-(3)------------|-------------7-|
|----------------|-------2--5---|----------------|-------2--5----|
|----------------|--------------|----------------|---------------|
|----------------|--------------|----------------|---------------|
|----------------|--------------|----------------|---------------|
|
|------8--10--8--|-6--8---------|------8--10--8--|-6--8----------|
|-(6)------------|-------6--5-6-|-(6)------------|-------6--5-10-|
|----------------|--------------|----------------|---------------|
|----------------|--------------|----------------|---------------|
|----------------|--------------|----------------|---------------|
|----------------|--------------|----------------|---------------|


                                                                           E5
|--------9--10---9--|--7---9-----------|--------9--10---9--|--7---9-----------||
|--(7)--------------|----------------7-|--(7)--------------|---------------5-o||
|-------------------|----------6--9----|-------------------|----------6--9----||
|-------------------|------------------|-------------------|------------------||
|-------------------|------------------|-------------------|-----------------o||
|-------------------|------------------|-------------------|------------------||
|
|-------12--14--12--|-10--12-----------|-------12--14--12--|-10--12-----------||
|-(10)--------------|---------10--9-10-|-(10)--------------|---------10--9-8-o||
|-------------------|------------------|-------------------|------------------||
|-------------------|------------------|-------------------|------------------||
|-------------------|------------------|-------------------|-----------------o||
|-------------------|------------------|-------------------|------------------||


                                                        H.=H
|-------7---8---7--|-5---7---------|-------7---8---7--|-5---7--------|
|-(5)--------------|-------------5-|-(5)--------------|--------------|
|------------------|--------4--7---|------------------|--------4--7--|
|------------------|---------------|------------------|--------------|
|------------------|---------------|------------------|--------------|
|------------------|---------------|------------------|--------------|
|
|------10--12--10--|-8--10---------|------10--12--10--|-8--10--------|
|-(8)--------------|--------8--7-8-|-(8)--------------|--------8--7--|
|------------------|---------------|------------------|--------------|
|------------------|---------------|------------------|--------------|
|------------------|---------------|------------------|--------------|
|------------------|---------------|------------------|--------------|


  Q=140
  E5
|-----7---8---7--|-5---7--------|-----7---8---7--|-5---7--------|
|-5--------------|--------------|-5--------------|--------------|
|----------------|--------4--7--|----------------|--------4--7--|
|----------------|--------------|----------------|--------------|
|----------------|--------------|----------------|--------------|
|----------------|--------------|----------------|--------------|
|
|----10--12--10--|-8--10--------|----10--12--10--|-8--10--------|
|-8--------------|--------8--7--|-8--------------|--------8--7--|
|----------------|--------------|----------------|--------------|
|----------------|--------------|----------------|--------------|
|----------------|--------------|----------------|--------------|
|----------------|--------------|----------------|--------------|


  D5
|----5---6--5--|-3--5--------|----5---6--5--|-3--5--------|
|-3------------|-------------|-3------------|-------------|
|--------------|-------2--5--|--------------|-------2--5--|
|--------------|-------------|--------------|-------------|
|--------------|-------------|--------------|-------------|
|--------------|-------------|--------------|-------------|
|
|----8--10--8--|-6--8--------|----8--10--8--|-6--8--------|
|-6------------|-------6--5--|-6------------|-------6--5--|
|--------------|-------------|--------------|-------------|
|--------------|-------------|--------------|-------------|
|--------------|-------------|--------------|-------------|
|--------------|-------------|--------------|-------------|


  F#5
|------9--10---9--|--7---9---------|------9--10---9--|--7---9---------|
|--7--------------|----------------|--7--------------|----------------|
|-----------------|----------6--9--|-----------------|----------6--9--|
|-----------------|----------------|-----------------|----------------|
|-----------------|----------------|-----------------|----------------|
|-----------------|----------------|-----------------|----------------|
|
|-----12--14--12--|-10--12---------|-----12--14--12--|-10--12---------|
|-10--------------|---------10--9--|-10--------------|---------10--9--|
|-----------------|----------------|-----------------|----------------|
|-----------------|----------------|-----------------|----------------|
|-----------------|----------------|-----------------|----------------|
|-----------------|----------------|-----------------|----------------|


  D#5
|----6---7--6--|-4--6--------|----6---7--6--|-4--6--------|
|-4------------|-------------|-4------------|-------------|
|--------------|-------3--6--|--------------|-------3--6--|
|--------------|-------------|--------------|-------------|
|--------------|-------------|--------------|-------------|
|--------------|-------------|--------------|-------------|
|
|----9--11--9--|-7--9--------|----9--11--9--|-7--9--------|
|-7------------|-------7--6--|-7------------|-------7--6--|
|--------------|-------------|--------------|-------------|
|--------------|-------------|--------------|-------------|
|--------------|-------------|--------------|-------------|
|--------------|-------------|--------------|-------------|


  E5
|-----7---8---7--|-5---7--------|-----7---8---7--|-5---7--------|
|-5--------------|--------------|-5--------------|--------------|
|----------------|--------4--7--|----------------|--------4--7--|
|----------------|--------------|----------------|--------------|
|----------------|--------------|----------------|--------------|
|----------------|--------------|----------------|--------------|
|
|----10--12--10--|-8--10--------|----10--12--10--|-8--10--------|
|-8--------------|--------8--7--|-8--------------|--------8--7--|
|----------------|--------------|----------------|--------------|
|----------------|--------------|----------------|--------------|
|----------------|--------------|----------------|--------------|
|----------------|--------------|----------------|--------------|


 Outro
  Q=150
  Bm
  Gtr I
|--2----(2)-2-3p2p0-|--2-----(2)-2-3p2p0-|
|-------------------|--------------------|
|-------------------|--------------------|
|-------------------|--------------------|
|-------------------|--------------------|
|-------------------|--------------------|
|
| Gtr II
|-^2----------------|-(2)----------------|
|-^3----------------|-(3)----------------|
|-^4----------------|-(4)----------------|
|-^4----------------|-(4)----------------|
|-^2----------------|-(2)----------------|
|-------------------|--------------------|


|--2--3-5s7s5-3-2-3-|--2--3-2-3-2--0---|
|-------------------|------------------|
|-------------------|------------------|
|-------------------|------------------|
|-------------------|------------------|
|-------------------|------------------|
|
|-(2)---------------|-(2)--------------|
|-(3)---------------|-(3)--------------|
|-(4)---------------|-(4)--------------|
|-(4)---------------|-(4)--------------|
|-(2)---------------|-(2)--------------|
|-------------------|------------------|


  G
|-------------------|--------------------|
|--3----(3)-3-5p3p2-|--3-----(3)-3-5p3p2-|
|-------------------|--------------------|
|-------------------|--------------------|
|-------------------|--------------------|
|-------------------|--------------------|
|
|-^3----------------|-(3)----------------|
|-^0----------------|-(0)----------------|
|-^0----------------|-(0)----------------|
|-^0----------------|-(0)----------------|
|-------------------|--------------------|
|-------------------|--------------------|


|-------2-3-2-------|--2--3-2----------|
|--3--5-------5-3-5-|---------5-3--5---|
|-------------------|------------------|
|-------------------|------------------|
|-------------------|------------------|
|-------------------|------------------|
|
|-(3)---------------|-(3)--------------|
|-(0)---------------|-(0)--------------|
|-(0)---------------|-(0)--------------|
|-(0)---------------|-(0)--------------|
|-------------------|------------------|
|-------------------|------------------|


  Bm
|--2----(2)-2-3p2p0-|--2-----(2)-2-3p2p0-|
|-------------------|--------------------|
|-------------------|--------------------|
|-------------------|--------------------|
|-------------------|--------------------|
|-------------------|--------------------|
|
|-^2----------------|-(2)----------------|
|-^3----------------|-(3)----------------|
|-^4----------------|-(4)----------------|
|-^4----------------|-(4)----------------|
|-^2----------------|-(2)----------------|
|-------------------|--------------------|


|--2--3-5s7s5-3-2-3-|--2--3-2-3-2--0---|
|-------------------|------------------|
|-------------------|------------------|
|-------------------|------------------|
|-------------------|------------------|
|-------------------|------------------|
|
|-(2)---------------|-(2)--------------|
|-(3)---------------|-(3)--------------|
|-(4)---------------|-(4)--------------|
|-(4)---------------|-(4)--------------|
|-(2)---------------|-(2)--------------|
|-------------------|------------------|


  G#
|-------------------|--------------------|
|--4----(4)-4-6p4p3-|--4-----(4)-4-6p4p3-|
|-------------------|--------------------|
|-------------------|--------------------|
|-------------------|--------------------|
|-------------------|--------------------|
|
|-^4----------------|-(4)----------------|
|-^1----------------|-(1)----------------|
|-^1----------------|-(1)----------------|
|-^1----------------|-(1)----------------|
|-------------------|--------------------|
|-------------------|--------------------|


                      H.=H
|-------3-4-3-------|--3--4-3----------|
|--4--6-------6-4-6-|---------6-4--5---|
|-------------------|------------------|
|-------------------|------------------|
|-------------------|------------------|
|-------------------|------------------|
|
|-(4)---------------|-(4)--------------|
|-(1)---------------|-(1)--------------|
|-(1)---------------|-(1)--------------|
|-(1)---------------|-(1)--------------|
|-------------------|------------------|
|-------------------|------------------|


  Q=80
  Bm
               >
|--2--------|-(2)----*|
|-----------|--------*|
|-----------|--------*|
|-----------|--------*|
|-----------|--------*|
|-----------|--------*|
|
|              >
|-^2--------|-(2)----*|
|-^3--------|-(3)----*|
|-^4--------|-(4)----*|
|-^4--------|-(4)----*|
|-^2--------|-(2)----*|
|-----------|--------*|



Comments