Iron Maiden - The Wicker Man Chords & Tabs

 

The Wicker Man Chords & Tabs

Iron Maiden Chords & Tabs

Version: 3 Type: Tab 0 ratings
1 star 2 stars 3 stars 4 stars 5 stars
comments

The Wicker Man Tab

Author/Artist: IRON MAIDEN!!
Title: Wicker Man
Album: Brave new world
Transcribed by: Andy Melbourne
Email: Metal_lord@ic24.net

this only came out yesterday, its a beast of a song!
this isnt perfect, but its as close as i can get it, its fairly close!
standard tuning.

u = upstroke
h = hammer on
p = pull off

intro
   u		   u		   u		   u	  u
-7-7---------7-7---------7-7---------3-3--5-5---------|
-7-7---------7-7---------7-7---------3-3--5-5---------|
-9-9---------9-9---------9-9---------5-5--7-7---------|
-9-9---------9-9---------9-9---------5-5--7-7---------|
-7-7---------7-7---------7-7---------3-3--5-5---------|
------xxxxx-------xxxxx-------xxxxx-------------------|


main part
-----------------------------------------------------|
-----------------------------------------------------|
-9-9---------9-9---------9-9---------5-5--7-7--------|
-9-9--xxxxx--9-9--xxxxx--9-9--xxxxx--5-5--7-7--------|
-7-7--xxxxx--7-7--xxxxx--7-7--xxxxx--3-3--5-5--------|
------xxxxx-------xxxxx-------xxxxx------------------|

[ Tab from: http://www.guitartabs.cc/tabs/i/iron_maiden/the_wicker_man_tab_ver_3.html ]
-----------------------------------------------------|
-----------------------------------------------------|
-9-9---------9-9---------9-9---------5-5--12-12------|
-9-9--xxxxx--9-9--xxxxx--9-9--xxxxx--5-5--12-12------|
-7-7--xxxxx--7-7--xxxxx--7-7--xxxxx--3-3--10-10------|
------xxxxx-------xxxxx-------xxxxx------------------|

pre chorus
-----------------------------------------------------------------|
-----------------------------------------------------------------|
-7------------9-5--------------5-12-12-12-11-9-7-----------------|
-7--let ring--9-5-let ring-----5-12-12-12-11-9-7----let ring-----|
-5------------7-3--------------3-10 10 10-9--7-5-----------------|
-----------------------------------------------------------------|
 "you see the world exploding every single night"

chorus;

guitar 1 (not right?! nearly!)
-------------------------------|
-------------------------------|
--7/9-9-9-9/7------------------|
--7/9-9-9-9/7------------------|
--5/7-7-7-7/5------------------|
-------------------------------|

guitar 2
(sounds nearly there!)
------h--p--h--p--h------------|
--12-13-12-13-12-13--12--------|
------------------------12-----|
-------------------------------|
-------------------------------|
-------------------------------|
"Your time will come...."

this is far from perfect, please mail me any improvements you have to
offer!
not figured out the solo yet!!
if anyone does, let me know!

MAIDEN!!!!!!!
Earls Court june 16th!
with Slayer!
Comments