Iron Maiden - The Trooper Live Chords & Tabs

 

The Trooper Live Chords & Tabs

Iron Maiden Chords & Tabs

Version: 2 Type: Tab

The Trooper Live Tab

Song Title: The Trooper
Band/Artist: Iron Maiden
Tabbed By: MaddMann274

Note: This tab does not include the live version of the solo, and is also not 
arranged in order. Friendly advice, listen to the song first. :)

INTRO AND OUTRO:
Dave Murray
|---------------------------------------------------------|
|---------------------------------------------------------|
|---------------------------------------------------------|
|------------------------------------------------5--------|
|----7--7--7p5-----5--5--5p3-----3--3--3p2-----5---5--7---|
|--------------7-------------5-------------3--------------|


|---------------------------------------------------------|
|---------------------------------------------------------|
|---------------------------------------------------------|
|------------------------------------------------5--------|
|--(7)--7--7p5-----5--5--5p3-----3--3--3p2-----5---5--7---|
|--------------7-------------5-------------3--------------|


Change In Riff (Dave Murray)
|---------------------------------------------------------|
|---------------------------------------------------------|
|---------------------------------------------------------| X2
|----5--5--5p4-----4--4--4p2-----2--2--2p0-------5--------|
|--------------5-------------3-------------2---5---5--7---|
|---------------------------------------------------------|


Adrian & Janick
Harmonize on the "Change In Riff" bar
|---------------------------------------------------------|
|---------------------------------------------------------|
|---------------------------------------------------------| X2
|-------------------------------------------9-------------|
|---10--10--10p9----9-9-9p7---7-7-7p5-----9---9--10-------|
|----------------10--------8----------7-------------------|


MAIN RIFF
Dave Murray
|------------------7----------------------------------------|
|--8--7h8p7h8p7h8-----8--7h8p7h8p7h8--8-----------8---------|
|----------------------------------------9--9---7---7--9----|
|-----------------------------------------------------------|
|-----------------------------------------------------------|
|-----------------------------------------------------------|


Adrian Smith
|-----------------------------------------------------------|
|-----------------------------------------------------------|
|------------------7----------------------------------------|
|--9--7h9p7h9p7h9-----9--7h9p7h9p7h9--9---------------------|
|---------------------------------------10-10---9-10-9-10---|
|-----------------------------------------------------------|


Janick Gers
|------------------3----------------------------------------|
|--5--3h5p3h5p3h5-----5--3h5p3h5p3h5--5-----------3---------|
|----------------------------------------4--4---2---2--4----|
|-----------------------------------------------------------|
|-----------------------------------------------------------|
|-----------------------------------------------------------|



VERSE
|--------------------------------------------------------------------|
|--------------------------------------------------------------------|
|-------7-----------------7-----------------7----------------7-------|
|---7---5---7--9------7---5---7--9------7---5---7--5-----7---5---7--9|
|---5-------5--7------5-------5--7------5-------5--3-----5-------5--7|
|--------------------------------------------------------------------|

|--------------------------------------------------------------------|
|--------------------------------------------------------------------|
|---------------------------------------------7----------------------|
|------9------9------9------9------9------7---5---7---9--------------|
|--7-7-7--7-7-7--7-7-7--7-7-7--7-7-7--7-7-5-------5---7--------------|
|--------------------------------------------------------------------|

|--------------------------------------------------------------------|
|--------------------------------------------------------------------|
|---------------------------------------------7----------------------|
|------9------9------9------9------9------7---5---7---5--------------|
|--7-7-7--7-7-7--7-7-7--7-7-7--7-7-7--7-7-5-------5---3--------------|
|--------------------------------------------------------------------|

|--------------------------------------------------------------------|
|--------------------------------------------------------------------|
|---------------------------------------------7----------------------|
|------5------5------5------5------5------7---5---7---9--------------|
|--3-3-3--3-3-3--3-3-3--3-3-3--3-3-3--3-3-5-------5---7--------------|
|--------------------------------------------------------------------|

|--------------------------------------------------------------------|
|--------------------------------------------------------------------|
|---------------------------------------------7----------------------|
|------9------9------9------9------9------7---5---7---7--------------|
|--7-7-7--7-7-7--7-7-7--7-7-7--7-7-7--7-7-5-------5---5--------------|
|--------------------------------------------------------------------|



CHORUS
|-----------------------------------------------------------------|
|-----------------------------------------------------------------|
|-----------------------------------------------------------------|
|---7------------7------7-----9---------7------------7------------|
|---5--------5-5-5--5-5-5-----7---------5--------5-5-5------------|
|-----------------------------0-----------------------------------|

|-----------------------------------------------------------------|
|-----------------------------------------------------------------|
|-------------------------------------------------7---------------|
|---2--------2------2------2------2------2-----7--5--7----9-------|
|---2--------2------2------2------2------2-----5-----5----7-------|
|---0----0-0-0--0-0-0--0-0-0--0-0-0--0-0-0------------------------|



RHYTHM FOR FIRST SOLO
|------------------------------------------|
|------------------------------------------|
|------------------------------------------|
|---9-------7------4-------5---7-----------|
|---7-------5------2-------3---5-----------|
|------------------------------------------|



ADRIAN SMITH SOLO
|--------------------------------------------------|
|--15b(17)---15b(17)---15b(17)---15p12---15--------|
|--------------------------------------------------|
|--------------------------------------------------|
|--------------------------------------------------|
|--------------------------------------------------|

                                            
|------15b(17)~-----15--12-----------------------------------|
|--12--------------------------------------------------------|
|---------------------------15--14--12-----------------------|
|---------------------------------------14-------12--10--9---|
|------------------------------------------------------------|
|------------------------------------------------------------|

      
|----------------------------------------------------------------|
|--------------12--15-----------12--15----------12--15-----------|
|--14---b(16)----------14b(16)----------14b(16)---------14b(16)--|
|----------------------------------------------------------------|
|----------------------------------------------------------------|
|----------------------------------------------------------------|


|-----------------------------------------------------------------|
|--12--15----------12--15----------12--15----------12--15---------|
|----------14b(16)---------14b(16)---------14b(16)--------14b(16)-|
|-----------------------------------------------------------------|
|-----------------------------------------------------------------|
|-----------------------------------------------------------------|

   
|---------------------------------------------------------|
|--12--15----------12--15----------12--15---------12--15--|
|----------14b(16)---------14b(16)--------14b(16)---------|
|---------------------------------------------------------|
|---------------------------------------------------------|
|---------------------------------------------------------|

                
|------------------------------------15--19p15--17p15------|
|---------------------------------17-------------------17--|
|--14b(16)----12-------------------------------------------|
|-----------------14--14--12-------------------------------|
|----------------------------------------------------------|
|----------------------------------------------------------|

                                    
|---15--19p15--17p15-----15--19p15--17p15----15--19p15--17p15--|
|---------------------17------------------17-------------------|
|--------------------------------------------------------------|
|--------------------------------------------------------------|
|--------------------------------------------------------------|
|--------------------------------------------------------------|
[ Tab from: http://www.guitartabs.cc/tabs/i/iron_maiden/the_trooper_live_tab_ver_2.html ]
                              
|-----15--19p15--17p15----15--19p15--17p15------15--19p15--17p15--|
|--17------------------17-------------------17--------------------|
|-----------------------------------------------------------------|
|-----------------------------------------------------------------|
|-----------------------------------------------------------------|
|-----------------------------------------------------------------|
                                              
*Harmony with Janick
|-------15-----20b(22)--20b(22)--20b(22)--20b(22)r20--20b(22)r20--|
|---17------------------------------------------------------------|
|-----------------------------------------------------------------|
|-----------------------------------------------------------------|
|-----------------------------------------------------------------|
|-----------------------------------------------------------------|
                       
                                                  Harmony ends *
|--20b(22)r20--20b(22)-----19--20--17--19-----17-----------------|
|------------------------------------------20-----19h20--17--17--|
|----------------------------------------------------------------|
|----------------------------------------------------------------|
|----------------------------------------------------------------|
|----------------------------------------------------------------|

   
|----------12----------12-----------------------------------------|
|------12------15b(17)-----15--12--15b(17)-12---------------------|
|---14-----------------------------------------14--12-------------|
|------------------------------------------------------14---------|
|----------------------------------------------------------14-----|
|-----------------------------------------------------------------|



JANICK GERS SOLO (Played Along With Adrian Smith)
|--------------------------------------------------|
|--15b(17)---15b(17)---15b(17)---15p12---15--------|
|--------------------------------------------------|
|--------------------------------------------------|
|--------------------------------------------------|
|--------------------------------------------------|

                                            
|------15b(17)~-----15--12-----------------------------------|
|--12--------------------------------------------------------|
|---------------------------15--14--12-----------------------|
|---------------------------------------14-------12--10--9---|
|------------------------------------------------------------|
|------------------------------------------------------------|

      
|----------------------------------------------------------------|
|--------------12--15-----------12--15----------12--15-----------|
|--14---b(16)----------14b(16)----------14b(16)---------14b(16)--|
|----------------------------------------------------------------|
|----------------------------------------------------------------|
|----------------------------------------------------------------|


|-----------------------------------------------------------------|
|--12--15----------12--15----------12--15----------12--15---------|
|----------14b(16)---------14b(16)---------14b(16)--------14b(16)-|
|-----------------------------------------------------------------|
|-----------------------------------------------------------------|
|-----------------------------------------------------------------|

   
|---------------------------------------------------------|
|--12--15----------12--15----------12--15---------12--15--|
|----------14b(16)---------14b(16)--------14b(16)---------|
|---------------------------------------------------------|
|---------------------------------------------------------|
|---------------------------------------------------------|

                
|------------------------------------15--19p15--17p15------|
|---------------------------------17-------------------17--|
|--14b(16)----12-------------------------------------------|
|-----------------14--14--12-------------------------------|
|----------------------------------------------------------|
|----------------------------------------------------------|

                                    
|---15--19p15--17p15-----15--19p15--17p15----15--19p15--17p15--|
|---------------------17------------------17-------------------|
|--------------------------------------------------------------|
|--------------------------------------------------------------|
|--------------------------------------------------------------|
|--------------------------------------------------------------|

                              
|-----15--19p15--17p15----15--19p15--17p15------15--19p15--17p15--|
|--17------------------17-------------------17--------------------|
|-----------------------------------------------------------------|
|-----------------------------------------------------------------|
|-----------------------------------------------------------------|
|-----------------------------------------------------------------|
                                              
*Harmony with Adrian
|--14b(15)--14b(15)r14--14b(15)r14--14b(15)r14--14b(15)--|
|--------------------------------------------------------|
|--------------------------------------------------------|
|--------------------------------------------------------|
|--------------------------------------------------------|
|--------------------------------------------------------|

                        Harmony ends *
|--12--14-----12----------------------|
|----------15----13--15--12h13--------|
|-------------------------------14----|
|-------------------------------------|
|-------------------------------------|
|-------------------------------------|


|----------12----------12-----------------------------------------|
|------12------15b(17)-----15--12--15b(17)-12---------------------|
|---14-----------------------------------------14--12-------------|
|------------------------------------------------------14---------|
|----------------------------------------------------------14-----|
|-----------------------------------------------------------------|



RHYTHM FOR SECOND SOLO
|------------------------------------------|
|------------------------------------------|
|------------------------------------------|
|------------------------------------------|
|---7-------5------2-------3---5-----------|
|---5-------3------0-------1---3-----------|



DAVE MURRAY SOLO
|--------5h8p5h8p5h8p5h8p5----------------------------------|
|--5h8----------------------8p5h8p5h8p5h8p5-----------------|
|--------------------------------------------7b(9)----------|
|-----------------------------------------------------------|
|-----------------------------------------------------------|
|-----------------------------------------------------------|

        
|----------------------------------------------------|
|----------------------------------------------------|
|--7--6--5-----6p5------------------------------9h11-|
|-----------7-------7--------------------------------|
|-----------------------6--5-------------------------|
|-----------------------------8--5---5---------------|

 
|---------------------------------------------------------------------------|
|--------------10h12p10h12p10h12-----------10h12p10h12p10h12--13p12h13p12h13|
|--9h11p9h11p9---------------------9h11p9-----------------------------------|
|---------------------------------------------------------------------------|
|---------------------------------------------------------------------------|
|---------------------------------------------------------------------------|

        
|---------------------------------------------------------|
|--14--15b(17)--15b(17)--15b(17)------15---13---15--------|
|---------------------------------------------------------|
|---------------------------------------------------------|
|---------------------------------------------------------|
|---------------------------------------------------------|

  
|---12h15p12h15p12h15p12h15p12h15p12h15---------------------|
|-----------------------------------------15p13p12-13-----12|
|-----------------------------------------------------------|
|-----------------------------------------------------------|
|-----------------------------------------------------------|
|-----------------------------------------------------------|

                                  
|--10h12p10h12p10h12----------------------------------------------|
|------------------------13b(15)----------------------------------|
|----------------------------------9b(12)------(9b(12))-----------|
|-----------------------------------------------------------------|
|-----------------------------------------------------------------|
|-----------------------------------------------------------------|

                
|-----------------------------------------|
|-----------------------------------------|
|---19-------19\12/17--------19b(21)------|
|-----------------------------------------|
|-----------------------------------------|
|-----------------------------------------|

                
|---------------------20b(22)---17----------------20b(22)----------|
|-------20b(22)---17---------------20b(22)----17-------------------|
|--/17-------------------------------------------------------------|
|------------------------------------------------------------------|
|------------------------------------------------------------------|
|------------------------------------------------------------------|

          
|--20--19--17-----------------------------------------------------|
|---------------20b(22)-------------------------------------------|
|----------------------19b(22)-------17--17-----------------------|
|---------------------------------------------19------------------|
|-----------------------------------------------------------------|
|-----------------------------------------------------------------|

   

Hope You Had Fun! ;)