Iron Maiden - The Lonaliness Of The Long Distance Runner Chords & Tabs

 

The Lonaliness Of The Long Distance Runner Chords & Tabs

Iron Maiden Chords & Tabs

Version: 1 Type: Bass Tab 0 ratings
1 star 2 stars 3 stars 4 stars 5 stars
comments

The Lonaliness Of The Long Distance Runner Bass Tab

Great song,
Has some similarities with Fear of the DARK..

Here is how it goes:


Intro part1
G|---9---9---9---9---5---5---5---5---7---7---7---7---9---9---7---7----|
D|--------------------------------------------------------------------|
A|-7---7---7---7---3---3---3---3---5---5---5---5---7---7---5---5------| x2
E|--------------------------------------------------------------------|

Intro part2
G|----12----12----12----12---8---8---8---8---10---10---10---10----12----12---10---10-|
D|-----------------------------------------------------------------------------------|
A|-10----10----10----10----6---6---6---6---8----8----8----8----10----10----8----8----| x2
E|-----------------------------------------------------------------------------------|

Intro part1 x2

Intro part2 x2

Verse
G|-------------------------------------------3-2-0-------------|
D|-0-0-0-0-0-0-0-2-0-0-0-0-0-0-3-0-0-0-0-0-0-------3-5-3-2-0---|
A|-------------------------------------------------------------|
E|-------------------------------------------------------------|

Verse (continued)
G|-------------------------------------------3-2-0-----------------0-3-2-0----|
D|-0-0-0-0-0-0-0-2-0-0-0-0-0-0-3-0-0-0-0-0-0-------3-5-3-2-0-0-2-3---------2--|
A|----------------------------------------------------------------------------|
E|----------------------------------------------------------------------------|

Verse (continued)
G|---------------4-----------------4-----------------6-----------------6----|
D|-2-2-2-2-5-4-5---5-2-2-2-2-5-4-5---5-4-4-4-4-7-6-7---7-4-4-4-4-7-6-7---7--|
A|--------------------------------------------------------------------------|
E|--------------------------------------------------------------------------|
x2
Chorus
G|-------------------------------------------------------------------|
D|-------------------------------------------------------------------|
A|-5-5-5-5-5-5-5-5-1-1-1-1-1-1-1-1-3-3-3-3-3-3-3-3-------------------|
E|-------------------------------------------------1-1-1-1-1-1-1-1---|

Chorus (continued)
G|-------------------------------------------------------------------|
D|-------------------------------------------------------------------|
A|-5-5-5-5-5-5-5-5-1-1-1-1-1-1-1-1-3-3-3-3-3-3-3-3-5-5-5-5-5-5-5-5---|
E|-------------------------------------------------------------------|

Break
G|------------------------------------|
D|------------------------------------|
A|-5-5-5-5-5-5-5-5-3-3-3-3-3-3-3-3-3--| x2
E|------------------------------------|
[ Tab from: http://www.guitartabs.cc/tabs/i/iron_maiden/the_lonaliness_of_the_long_distance_runner_btab.html ]
Break2
G|---------|---------|----------------------------|
D|---------|---------|----------------------------|
A|-1-1-1-1-|-1-1-1-1-|-1-1-1-1-3-5-5-5-5-5-5-5-5--| x2
E|---------|---------|----------------------------|

Break3
G|-----------------------------------------------------------------|
D|-----------------------------------------------------------------|
A|-7-7-7-7-7-7-7-7-3-3-3-3-3-3-3-3-5-5-5-5-5-5-5-5-0-0-0-0-3-3-3---| x2
E|-----------------------------------------------------------------|

Break4
G|------------------------------------------------------------------|
D|------------------------------------------------------------------|
A|-7-7-7-7-7-7-7-7-3-3-3-3-3-3-3-3-5-5-5-5-5-5-5-5-0-0-0-0-3-3-3-5--|
E|------------------------------------------------------------------|

Break4 (continued)
G|------------------------------------------------------------------|
D|------------------------------------------------------------------|
A|-7-7-7-7-7-7-7-7-3-3-3-3-3-3-3-3-0-0-0-0-0-0-0-0-3-3-3-3-5-5-5-5--|
E|------------------------------------------------------------------|

Solo1
G|--------------------------------------|
D|--------------------------------------|
A|-10-10-10-10-5-5-5-5-7-7-7-7-3-3-3-3--|
E|--------------------------------------|

Solo1 (continued)
G|--------------------------------------|
D|--------------------------------------|
A|-10-10-10-10-5-5-5-5-3-3-3-3-3-3-3-3--| x2
E|--------------------------------------|

Solo2
G|------------------------------------------------------------------|
D|-7-7-7-7-3-3-3-3-0-0-0-0-0-0-0-0-7-7-7-7-3-3-3-3-4-4-4-4-4-4-4-4--|
A|------------------------------------------------------------------| x2
E|------------------------------------------------------------------|

G|-------------------|
D|-4-4-4-4-4-4-4-4---|
A|-------------------|
E|-------------------|

Verse x1

Chorus x2

Outro1
G|--------------------------------------------------|
D|--------------------------------------------------|
A|-7-7-7-7-7-7-3-3-3-3-3-3-5-5-5-5-5-5-7-7-7-5-5-5--| x2
E|--------------------------------------------------|

Outro2
G|-----------------------------------------------------------|
D|-----------------------------------------------------------|
A|-10-10-10-10-10-10-6-6-6-6-6-6-8-8-8-8-8-8-10-10-10-8-8-8--| x2
E|-----------------------------------------------------------|

Outro1 x7

Outro3
G|-------------------------------------------------------|
D|----------------------------------2---2-2-2-2----------|
A|-7-7-7-7-7-7-3-3-3-3-3-3-5~-7~------2---------2-2-2----|
E|-------------------------------0~-------------------0--|

That's it Enjoy!!!
Comments