Iron Maiden - The Evil That Men Do Chords & Tabs

 

The Evil That Men Do Chords & Tabs

Iron Maiden Chords & Tabs

Version: 4 Type: Tab 0 ratings
1 star 2 stars 3 stars 4 stars 5 stars
comments

The Evil That Men Do Tab

chris garr
burnip.garr@btopenworld.com

adrian smith
|-------------------------------------------------------------------|
|-------------------------------------------------------------------|
|-------------------------------------------------------------------|
|-----5---7/9\7-5-7/9-9-------5---7/9\7-5-7/9-----------------------|
|-5/7---7-----------------5h7---7-------------7---------------------|
|-------------------------------------------------------------------|

|-------------------------------------------------------------------|
|-----------------------------8br8----------------------------------|
|-----------------------7h9p7---------------------------------------|
|-----5---7-9-7-5-7/9\7---------------------------------------------|
|-5h7---7-----------------------------------------------------------|
|-------------------------------------------------------------------|

dave murray clean
--------------------------------------------------------------------|
-----------8------------------------------------------------------8-|
--------9------------7--------5--------7-------5------5-------7---9-|
-----9-------------7--------5--------7-------5------5-------7-----9-|
--7--------------5--------3--------5-------3------3-------5-------7-|
--------------------------------------------------------------------|

--------------------------------------------------------------------|
--------------------------------------------------------------------|
-------7-------5----------------------------------------------------|
-----7-------5------------------------------------------------------|
--5--------3--------------------------------------------------------|
--------------------------------------------------------------------|

(verse)
--------------------------------------------------------------------|
--------------------------------------------------------------------|
--------------------------------------------------------------------|
-9-9-9-9-9-9-9--7---14---7---9--7----14---5-5-5-5-5-5-5-------------|
-7-7-7-7-7-7-7--5---12---5---7--5----12---3-3-3-3-3-3-3-------------|
-0-0-0-0-0-0-0---------------0--------------------------------------|
pm............................................pm....................


adrian smith fill
-0-0-0-0------------------------------------------------------------|
-8-7-8-7------------------------------------------------------------|
---------9-9--------------------------------------------------------|
--------------------------------------------------------------------|
--------------------------------------------------------------------|
--------------------------------------------------------------------|

dave murray
--------------------------------------------------------------------|
--------------------------------------------------------------------|
--------------------------------------------------------------------|
-5-5-5-5------------------------------------------------------------|
-3-2-3-2p0----------------------------------------------------------|
--------------------------------------------------------------------|

--0----------------------0------------------------------------------|
--0------3---------------0------3-----------------------------------|
--0--5---4---------------0--5---4-----------------------------------|
--2--5---5---------------2--5---5-----------------------------------|
--2--3---5----------2----2--3---5--------2-3------------------------|
--0----------2-3-5-------0---------2-3-5----------------------------|


adrian smith/dave murray
--------------------------------------------------------------------|
--------------------------------------------------------------------|
--5-4---------------------------------------------------------------|
------7-5-4-5-7-----------------------------------------------------|
----------------3---------------------------------------------------|
--------------------------------------------------------------------|

adrian smith
--------------------------------------------------------------------|
--------------------------------------------------------------------|
----12----14br14-12-14/16--------12----14br14-12-14-12-11-----------|
-14----14------------------12-14----14------------------------------|
--------------------------------------------------------------------|
--------------------------------------------------------------------|
for the interlude bit dave plays the intro lead riff with the fill below

dave murray
--------------------------------------------------------------------|
--------------------------------------------------------------------|
-------5-7-9-9------------------------------------------------------|
-5-7-9--------------------------------------------------------------|
--------------------------------------------------------------------|
--------------------------------------------------------------------|
[ Tab from: http://www.guitartabs.cc/tabs/i/iron_maiden/the_evil_that_men_do_tab_ver_4.html ]
adrian smith
--------------------------------------------------------------------|
---------------12-13-15-15------------------------------------------|
-----11-12-14-------------------------------------------------------|
--14----------------------------------------------------------------|
--------------------------------------------------------------------|
--------------------------------------------------------------------|

chorus
--------------------2------------------------------------------------|
--------------------3------------------------------------------------|
--0-0-0-00-0--5-5---2--0-0-0-0-0-0---5-5---2-------------------------|
--2-2-2-22-2--5-5------2-2-2-2-2-2---5-5---2-------------------------|
--2-2-2-22-2--3-3------2-2-2-2-2-2---3-3---0-------------------------|
--0-0-0-00-0-----------0-0-0-0-0-0-----------------------------------|

adrian smith
----------------------2-----------------------------------------------|
----------------------3-----------------------------------------------|
-3-2-----3-2------5---2----3-2-----3-2-------5---2--------------------|
-----5-3-----5-3--5------------5-3-----5-3---5---2--------------------|
------------------3--------------------------3---0--------------------|
----------------------------------------------------------------------|

interlude2
----------------------------------------------------------------------|
----------------------------------------------------------------------|
----------------------------16-16-------------------------------------|
-2-5-4-2---2-2-5-4-2---2----17-17-------------------------------------|
---------5-----------5------------------------------------------------|
----------------------------------------------------------------------|


----------------------------------------------------------------------|
----------------------------------------------------------------------|
--------------------------------16-16---------------------------------|
-9-7h9p7-4-5--7-9p7h9p7--4-5----17-17---------------------------------|
----------------------------------------------------------------------|
----------------------------------------------------------------------|

rythm for solo
----------------------------------------------------------------------|
----------------------------------------------------------------------|
--------------------------------------4-------------------------------|
--4--4-4-4-4---7--9---4-4-4-4-4---7---4-------------------------------|
--4--4-4-4-4---5--7---4-4-4-4-4---5---2-------------------------------|
--2--2-2-2-2----------2-2-2-2-2---------------------------------------|

adrian smith solo
------14-16-17-16-14------16------------------------------------------|
--17b----------------17------17----17---------------------------------|
--------------------------------16----16------------------------------|
------------------------------------------14--------------------------|
---------------------------------------------15\----------------------|
----------------------------------------------------------------------|

----------------------------------------------12----------------------|
--------------------------------------10-9-10----10-9-10--------------|
--------------------------------11-11--------------------9------------|
--7-6-9-7-5--9-7-11-9-7-12-10-9---------------------------------------|
----------------------------------------------------------------------|
----------------------------------------------------------------------|
pm...........pm.............pm.

------------12------------------12-------------------12---------------|
-----10--------10-------10---------10-------10----------10------------|
--11----11-----------11-----11----------11------11-----------11--11---|
----------------------------------------------------------------------|
----------------------------------------------------------------------|
----------------------------------------------------------------------|

--16-16-16-12----12-11------------------------------------------------|
--------------12-------12-11-12-14-12-11------------------------------|
-----------------------------------------12---------------------------|
----------------------------------------------------------------------|
----------------------------------------------------------------------|
----------------------------------------------------------------------|

--19br19-17-16-17p16h17p16----17----------------------------------------|
---------------------------19----19-17-16h17p16-------------------------|
------------------------------------------------16h18p16----------------|
---------------------------------------------------------18p16h16p18----|
---------------------------------------------------------------------17-|
------------------------------------------------------------------------|

lead outro adrian smith
----------------------------------------------------------------------|
-------------12-13-15br15-13-------15b--------------------------------|
----11-12-14-----------------14p12------12/14\12---7/9\7--------------|
-14-------------------------------------------------------------------|
----------------------------------------------------------------------|
----------------------------------------------------------------------|

----------------------------------------------------------------------|
----------------------------------------------------------------------|
---------------------------9-9----------------------------------------|
-2-5-4-2---2-2-5-4-2---2---9-9----------------------------------------|
---------5-----------5-----7-7----------------------------------------|
----------------------------------------------------------------------|
Comments