Iron Maiden - Remember Tomorrow Chords & Tabs

 

Remember Tomorrow Chords & Tabs

Iron Maiden Chords & Tabs

Version: 4 Type: Tab 0 ratings
1 star 2 stars 3 stars 4 stars 5 stars
comments

Remember Tomorrow Tab

Remember Tomorrow
Iron Maiden
I am sure that this is 100% perfect because i have pretty good ears and this is exactly 
the song sounds like.
Have fun.


---------------------------------12-------12--|
-------------------------------------12-------|
----------------------------------------------|
-----2------2---------------------------------|
---2------2-----------------------------------|
-0------0--------0----0----0------------------|
				  let ring

-----------------------|-----------------------|
-----------------------|-----------------------|
-----------------------|-----------------------|
-----3------3----------|-----2------2----------|
---3------3---------3--|---2------2------------|
-1------1--------1-----|-0------0------0---0---|

-12-----------------------|------------------------|
-12-----------------------|------------------------|
-12-----------------------|------------------------|
--------2------2----------|------2------2----------|
------2------2------------|----2------2------------|
-----------0-------0---0--|--0------0-------0---0--|

----------------------|-----------------------------|
--------------------0-|-----------------------------|
----------------------|-----------------------------|
-------3--------3-----|-------2------2--------------|
----3--------3--------|-----2------2----------------|
-1--------1-----------|---0------0-------0----0-----|
[ Tab from: http://www.guitartabs.cc/tabs/i/iron_maiden/remember_tomorrow_tab_ver_4.html ]
Guitar Pattern A:
--7--------7---------7-|--------7--------7-----------|
-----8--------8--------|--8--------8--------8--------|
--------9--------9-----|-----9--------9--------9-----|
-----------------------|-----------------------------|
-----------------------|-----------------------------|
-----------------------|-----------------------------|

-8--------8--------8----|--7--------7---------5------|
---10-------10-------10-|-----8--------8------7------|
------10-------10-------|--------9--------9---7------|
------------------------|----------------------------|
------------------------|----------------------------|
------------------------|----------------------------|

Guitar Riff A:
fire.___________________________________________________
--------------------------------------------------------|
--------------------------------------------------------|
--------------------------------------------------------|
-----------------------------------5----5---------------|
--2----2--9---9---5--4--5-----5-5--3----3---3--2--------|
--0----0--7---7---3--2--3-----3-3----------------3--2---|

Guitar Riff B:

------------------------|----------------------------|
------------------------|----------------------------|
------------------------|----------------------------|
-------2---------2------|-------2--------2-----------|
----2---------2-------2-|----2--------2-------2------|
-0---------0--------0---|-0--------0--------0--------|
(repeat till end)
FIN.
Comments