Iron Maiden - Rainmaker Chords & Tabs

 

Rainmaker Chords & Tabs

Iron Maiden Chords & Tabs

Version: 4 Type: Tab 0 ratings
1 star 2 stars 3 stars 4 stars 5 stars
comments

Rainmaker Tab

   
-----------------------------------------------------------------------------
			   RAINMAKER - Iron Maiden
-----------------------------------------------------------------------------

Tabbed by: Ignacio "Coco" Vespoli
Email: cocofuhgawz@hotmail.com


Well, before start tabbing, let me tell you something, as you know, Iron Maiden has
got 3 guitars, but the version that im gonna tab is for two guitars. Let me explain
you, in the verses, bridges, whatever, each guitar play different chords, what im
gonna do is to create a chord that sounds exactly like the 3 guitars at the same time;
difficult? no, its very simple.
Well, with this tab you can play the song with only one guitar, but but there are parts
like the solo or the intro where you need 2 guitars, so here we go.
Im sure this tab is going to be in the fresh tabs :P


Tuning: Normal


INTRO

Guitar 1
e|---------------------------------------------|------------------------|
B|--------------15-------13-------11-----------|--------------15--------|
G|-----------14----14-------14-------12-14-----|-----------14----14-----|
D|--12-14/15----------15-------15----------15--|--12-14/15----------15--|
A|---------------------------------------------|------------------------|
E|---------------------------------------------|------------------------|
        play this first part 3 times               this one 2 times
   
Guitar 2
e|------------------------------------------------------|
B|------------------------------------------------------|
G|--7--77777------------10--1010101010--9---9-9-9-9-9---| play this 2 times
D|--7--77777--8--88888--10--1010101010--10--1010101010--|
A|--5--55555--5--55555--8---8-8-8-8-8---7---7-7-7-7-7---|
E|------------6--66666----------------------------------|
       p.m...    p.m...     p.m........     p.m......


VERSE
The 2 guitars play this
e|------------------------------------------------------|
B|------------------------------------------------------|
G|--7--77777------------10--1010101010--9---9-9-9-9-9---| play this 3 times
D|--7--77777--8--88888--10--1010101010--10--1010101010--|
A|--5--55555--5--55555--8---8-8-8-8-8---7---7-7-7-7-7---|
E|------------6--66666----------------------------------|
       p.m..     p.m..      p.m.......      p.m.......


BRIDGE

e|-------------------------------------------|
B|-------------------------------------------|
G|-------------------------------------------|
D|--888888888888888--1010101010101010101010--|
A|--888888888888888--1010101010101010101010--|
E|--666666666666666--8-8-8-8-8-8-8-8-8-8-8---|


CHORUS

e|-------------------------------------------------------------------------|
B|-------------------------------------------------------------------------|
G|-7--77777--10--1010101010------------------------------------------------|
D|-7--77777--10--1010101010--8--88888--10--1010101010--5--55555--8--88888--|
A|-5--55555--8---8-8-8-8-8---8--88888--10--1010101010--5--55555--8--88888--|
E|---------------------------6--66666--8---8-8-8-8-8---3--33333--6--66666--|

e|----------------------------|
B|----------------------------|
G|----------------------------|
D|--7--77777--10--1010101010--|
A|--8--88888--10--1010101010--|
E|--5--55555--8---8-8-8-8-8---| 

e|-------------------------------------------------------------------------|
B|-------------------------------------------------------------------------|
G|-7--77777--10--1010101010------------------------------------------------|
D|-7--77777--10--1010101010--8--88888--10--1010101010--5--55555--8--88888--|
A|-5--55555--8---8-8-8-8-8---8--88888--10--1010101010--5--55555--8--88888--|
E|---------------------------6--66666--8---8-8-8-8-8---3--33333--6--66666--|
      
e|--------------------------|
B|--------------------------|
G|--------------------------|
D|--1010101010101010101010--|
A|--1010101010101010101010--|
E|--8-8-8-8-8-8-8-8-8-8-8---|



CHORUS 2

e|----------------------|                |----------------------| \
B|--6--66666--8--88888--|                |--6--66666--8--88888--|  \
G|--7--77777--7--77777--| repeat 2 times |--7--77777--7--77777--|   \
D|--0--00000--0--00000--|                |--8--88888--8--88888--|    \
A|----------------------|                |----------------------|     \ 
E|----------------------|                |----------------------|      \
        p.m..     p.m..                         p.m..     p.m..         \__x2
                                                                        /
e|--------------------------|                                          /
B|--------------------------|                                         /
G|--1010101010--9-9-9-9-9---|                                        /
D|--1010101010--1010101010--|                                       /
A|--8-8-8-8-8---7-7-7-7-7---|                                      /
E|--------------------------|                                     /





CHORUS
Guitar 1
e|-------------------------------------------------------------------------|
B|-------------------------------------------------------------------------|
G|-7--77777--10--1010101010------------------------------------------------|
D|-7--77777--10--1010101010--8--88888--10--1010101010--5--55555--8--88888--|
A|-5--55555--8---8-8-8-8-8---8--88888--10--1010101010--5--55555--8--88888--|
E|---------------------------6--66666--8---8-8-8-8-8---3--33333--6--66666--|

e|----------------------------|
B|----------------------------|
G|----------------------------|
D|--7--77777--10--1010101010--|
A|--8--88888--10--1010101010--|
E|--5--55555--8---8-8-8-8-8---| 

e|-------------------------------------------------------------------------|
B|-------------------------------------------------------------------------|
G|-7--77777--10--1010101010------------------------------------------------|
D|-7--77777--10--1010101010--8--88888--10--1010101010--5--55555--8--88888--|
A|-5--55555--8---8-8-8-8-8---8--88888--10--1010101010--5--55555--8--88888--|
E|---------------------------6--66666--8---8-8-8-8-8---3--33333--6--66666--|
      
e|--------------------------|
B|---------.\*/.------------|
G|--------------------------|
D|--1010101010101010101010--|
A|--1010101010101010101010--|
E|--8-8-8-8-8-8-8-8-8-8-8---|


Guitar 2 
 
.\*/.
         b.u.   b.d.
|-------------------------10-------10-|
|-----10---------------10----10-13----|
|--------12-(14)___12-----------------|
|-------------------------------------|
|-------------------------------------|
|-------------------------------------|


                         b.u.    b.d.
|--------10-------10------------------|
|-10--13----10-13----10-13-(15)___13--|
|-------------------------------------|
|-------------------------------------|
|-------------------------------------|
|-------------------------------------|




CHORUS 2

e|----------------------|                |----------------------| \
B|--6--66666--8--88888--|                |--6--66666--8--88888--|  \
G|--7--77777--7--77777--| repeat 2 times |--7--77777--7--77777--|   \
D|--0--00000--0--00000--|                |--8--88888--8--88888--|    \
A|----------------------|                |----------------------|     \ 
E|----------------------|                |----------------------|      \
        p.m..     p.m..                         p.m..     p.m..         \__x2
                                                                        /
e|--------------------------|                                          /
B|--------------------------|                                         /
G|--1010101010--9-9-9-9-9---|                                        /
D|--1010101010--1010101010--|                                       /
A|--8-8-8-8-8---7-7-7-7-7---|                                      /
E|--------------------------|                                     /






SOLO

Guitar 1

     b.u.     b.u.       b.u.
e|--------------------------------------------------|----------------------
B|--13-(15)--13-(15)----13-(15)--13-------13--------|-----------10h11p10---
G|----------------------------------14-12----14-12--|-----10-12------------
D|--------------------------------------------------|--12------------------
A|--------------------------------------------------|----------------------
E|--------------------------------------------------|----------------------

                        b.u.                       b.u.    b.d.   r.b.
--------------10h12p10---------10------------------------------------------
-----10h11h13----------13-(15)----13p10----13p10---------------------------
--12------------------------------------12--------12-(14)___(12)__(12)\----
---------------------------------------------------------------------------
---------------------------------------------------------------------------
---------------------------------------------------------------------------

   b.u.   b.d.                                              b.u.    b.u. 
---------------10h13p10-12p10-----10h13p10----------13h15-15-(17)-15-(17)--
--13-(15)__13------------------13----------10-13/15------------------------
---------------------------------------------------------------------------
---------------------------------------------------------------------------
---------------------------------------------------------------------------
---------------------------------------------------------------------------

--15h17p15-----15h17--18--17h18p17p15--15--17p15p13---17p15p13---17p15p13--
-----------18--------------------------------------------------------------
---------------------------------------------------------------------------
---------------------------------------------------------------------------
---------------------------------------------------------------------------
---------------------------------------------------------------------------
                                              T          T          T
[ Tab from: http://www.guitartabs.cc/tabs/i/iron_maiden/rainmaker_tab_ver_4.html ]
                            b.u.   b.d.
--17p15p13---17p15p13--17-18-(20)__18---18-17-15-17p15--17-17h18p17-15-----
-----------------------------------------------------------------------17--
---------------------------------------------------------------------------
---------------------------------------------------------------------------
---------------------------------------------------------------------------
---------------------------------------------------------------------------
     T          T

--------------------------15--17h18p17p15-------17----------20-------20----
--18-17-15-15-13/15-17-18-----------------17-18----18-17-18----17-18-------
---------------------------------------------------------------------------
---------------------------------------------------------------------------
---------------------------------------------------------------------------
---------------------------------------------------------------------------

--------20----20---20*\--|
--17-18----17------------|
-------------------------|
-------------------------|
-------------------------|
-------------------------|


Guitar 2 plays this while guitar 1 play the solo
e|-------------------------------------------------------------------------|
B|-------------------------------------------------------------------------|
G|-7--77777--10--1010101010------------------------------------------------|
D|-7--77777--10--1010101010--8--88888--10--1010101010--5--55555--8--88888--|
A|-5--55555--8---8-8-8-8-8---8--88888--10--1010101010--5--55555--8--88888--|
E|---------------------------6--66666--8---8-8-8-8-8---3--33333--6--66666--|

e|----------------------------|
B|----------------------------|
G|----------------------------|
D|--7--77777--10--1010101010--|
A|--8--88888--10--1010101010--|
E|--5--55555--8---8-8-8-8-8---| 

e|-------------------------------------------------------------------------|
B|-------------------------------------------------------------------------|
G|-7--77777--10--1010101010------------------------------------------------|
D|-7--77777--10--1010101010--8--88888--10--1010101010--5--55555--8--88888--|
A|-5--55555--8---8-8-8-8-8---8--88888--10--1010101010--5--55555--8--88888--|
E|---------------------------6--66666--8---8-8-8-8-8---3--33333--6--66666--|
      
e|--------------------------|
B|--------------------------|
G|--------------------------|
D|--1010101010101010101010--|
A|--1010101010101010101010--|
E|--8-8-8-8-8-8-8-8-8-8-8---|



INTERLUDE

Guitar 1
e|-----9-10-9---------------------------------------|
B|--12--------12-----10-12-10---8-7-8--7---7--------|
G|---------------11----------------------9---9-7-7--|
D|--------------------------------------------------|
A|--------------------------------------------------|
E|--------------------------------------------------|

Guitar 2
e|--------------------------------------------------|
B|--------7-----------------------------------------|
G|--7--9----9--7--7---6--7--6---6-6-7--6---6--------|
D|---------------------------------------9---9-7-9--|
A|--------------------------------------------------|
E|--------------------------------------------------|


Guitar 1
e|-----9-10-9----12/14--12-10-12--10-9-10--9----9------------|
B|--12--------12-----------------------------12----12-10-12--|
G|-----------------------------------------------------------|
D|-----------------------------------------------------------|
A|-----------------------------------------------------------|
E|-----------------------------------------------------------|

Guitar 2
e|-----------------------------------------------------------|
B|--------7--------------------------------------------------|
G|--7--9----9--7--7------6--7--6-----------------------------|
D|---------------------------------9-7--9--7--5-7--5-----7\--|
A|----------------------------------------------------9------|
E|-----------------------------------------------------------|


Guitar 1
e|-----9-10-9---------------------------------------|
B|--12--------12-----10-12-10---8-7-8--7---7--------|
G|---------------11----------------------9---9-7-7--|
D|--------------------------------------------------|
A|--------------------------------------------------|
E|--------------------------------------------------|

Guitar 2
e|--------------------------------------------------|
B|--------7-----------------------------------------|
G|--7--9----9--7--7---6--7--6---6-6-7--6---6--------|
D|---------------------------------------9---9-7-9--|
A|--------------------------------------------------|
E|--------------------------------------------------|


Guitar 1
e|-----9-10-9----12/14--12-10-12--10-9-10--9----9------------|
B|--12--------12-----------------------------12----12-10-12--|
G|-----------------------------------------------------------|
D|-----------------------------------------------------------|
A|-----------------------------------------------------------|
E|-----------------------------------------------------------|

Guitar 2
e|-----------------------------------------------------------|
B|--------7--------------------------------------------------|
G|--7--9----9--7--7------6--7--6-----------------------------|
D|---------------------------------9-7--9--7--5-7--5-----7\--|
A|----------------------------------------------------9------|
E|-----------------------------------------------------------|




CHORUS 2

e|----------------------|                |----------------------| \
B|--6--66666--8--88888--|                |--6--66666--8--88888--|  \
G|--7--77777--7--77777--| repeat 2 times |--7--77777--7--77777--|   \
D|--0--00000--0--00000--|                |--8--88888--8--88888--|    \
A|----------------------|                |----------------------|     \ 
E|----------------------|                |----------------------|      \
        p.m..     p.m..                         p.m..     p.m..         \__x2
                                                                        /
e|--------------------------|                                          /
B|--------------------------|                                         /
G|--1010101010--9-9-9-9-9---|                                        /
D|--1010101010--1010101010--|                                       /
A|--8-8-8-8-8---7-7-7-7-7---|                                      /
E|--------------------------|                                     /





CHORUS

Guitar 1
e|-------------------------------------------------------------------------|
B|-------------------------------------------------------------------------|
G|-7--77777--10--1010101010------------------------------------------------|
D|-7--77777--10--1010101010--8--88888--10--1010101010--5--55555--8--88888--|
A|-5--55555--8---8-8-8-8-8---8--88888--10--1010101010--5--55555--8--88888--|
E|---------------------------6--66666--8---8-8-8-8-8---3--33333--6--66666--|

e|----------------------------|
B|---------------------|*|----|
G|----------------------------|
D|--7--77777--10--1010101010--|
A|--8--88888--10--1010101010--|
E|--5--55555--8---8-8-8-8-8---| 

e|-------------------------------------------------------------------------|
B|---------------------------------------------/*|-------------------------|
G|-7--77777--10--1010101010------------------------------------------------|
D|-7--77777--10--1010101010--8--88888--10--1010101010--5--55555--8--88888--|
A|-5--55555--8---8-8-8-8-8---8--88888--10--1010101010--5--55555--8--88888--|
E|---------------------------6--66666--8---8-8-8-8-8---3--33333--6--66666--|
      
e|--------------------------|
B|---------\*/--------------|
G|--------------------------|
D|--1010101010101010101010--|
A|--1010101010101010101010--|
E|--8-8-8-8-8-8-8-8-8-8-8---|


Guitar 2 
 
|*|
                     b.u.   b.d.
e|--------10-----------------------------|
B|--10/13----13--------------------------|
G|---------------12-(14)_____12--10--12--|
D|---------------------------------------|
A|---------------------------------------|
E|---------------------------------------|



/*|
      b.u.               
e|--15-(17)--15--13--|
B|-------------------|
G|-------------------|
D|-------------------|
A|-------------------|
E|-------------------|



 
\*/
                                b.u.   b.d.                  
e|--10/13-10----10-------------------------------
B|-----------13----13-10----10-------------------
G|-----------------------12----12-(14)___12--10--
D|-----------------------------------------------
A|-----------------------------------------------
E|-----------------------------------------------



OUTRO

Guitar 1
e|---------------------------------------------|
B|--------------15-------13-------11-----------|
G|-----------14----14-------14-------12-14-----| x1
D|--12-14/15----------15-------15----------15--|
A|---------------------------------------------|
E|---------------------------------------------|


e|-------------------------------------------|
B|--------------15-------13-12---------------|
G|-----------14----14----------15--12-14-----|x2
D|--12-14/15----------15-----------------15--|
A|-------------------------------------------|
E|-------------------------------------------|


e|------------------------|
B|--------------15--------|
G|-----------14----14-----|x4
D|--12-14/15----------15--|
A|------------------------|
E|------------------------|


e|--------|
B|--------|
G|--------|x1
D|--12\---|
A|--------|
E|--------|


Guitar 2

e|------------------------------------------------------|
B|------------------------------------------------------|
G|--7--77777------------10--1010101010--9---9-9-9-9-9---| play this 2 times
D|--7--77777--8--88888--10--1010101010--10--1010101010--|
A|--5--55555--5--55555--8---8-8-8-8-8---7---7-7-7-7-7---|
E|------------6--66666----------------------------------|
       p.m...    p.m...     p.m........     p.m......


e|---------------|
B|---------------|
G|--7-7-7-7-7\---|
D|--7-7-7-7-7\---|
A|--5-5-5-5-5\---|
E|---------------|





 T    Tap
 r.b. release bend
 b.d. dending down
 b.u. bending up
 tr.  tremolo
 /    slide up
 \    slide down
 h    hammer-on
 p    pull-off
 ~    vibrato
 +    harmonic
 x    Mute note
 *    hold note
===============================================================================
Well, if you have something to say, just send me an e-mail to cocofuhgawz@hotmail.com or post a comment
Comments