Iron Maiden - Prowler Chords & Tabs

 

Prowler Chords & Tabs

Iron Maiden Chords & Tabs

Version: 1 Type: Bass Tab

Prowler Bass Tab

This is not me it was transcribed by Vinicius Neves enjoy!

Intro
  |--------|--------|--------|--------|--------|--------|--------|--------|
  |--------|--------|--------|--------|--------|--------|--------|--------|
  |-----7--|---5-5--|-----7--|---5-5--|-----5--|---5-5--|-----7--|-----7--|
  |--------|--------|--------|--------|--------|--------|--------|--------|

  |--------|--------|--------|--------|--------|--------|
  |--------|--------|--------|--------|--------|--------|
  |---5-5--|-----7--|---5-5--|-----5--|---5-5--|-----7--|
  |--------|--------|--------|--------|--------|--------|

  Verse
  |-------------------|-------------------|-------------------|
  |-------------------|-------------------|-------------------|
  |--7-7-7-7-7-7-7-7--|--7-7-7-7-7-7-7-7--|--5-5-5-5-5-5-5-5--|
  |-------------------|-------------------|-------------------|

  |-------------------|-------------------|-------------------|
  |-------------------|-------------------|-------------------|
  |--5-5-5-5-5-5-5-5--|--7-7-7-7-7-7-7-7--|--7-7-7-7-7-7-7-7--|
  |-------------------|-------------------|-------------------|

  |-------------------|-------------------|
  |-------------------|-------------------|
  |--5-5-5-5-5-5-5-5--|--7-7-7-7-7-7-7-7--|
  |-------------------|-------------------|

  Chorus and Solo
  |---------|-------------------|-------------------|-------------------|
  |---------|-------------------|-------------------|-------------------|
  |---------|-------------------|-------------------|-------------------|
  |--3-5-3--|--1-1-1-1-1-1-1-1--|--1-1-1-1-1-1-1-1--|--1-1-1-1-1-1-1-1--|

  |-------------------|---------------------|---------|
  |-------------------|---------------------|---------|
  |-------------------|---------------------|---------|
  |--1-1-1-1-1-1-1-1--|--0-0-0-0-0-0-0-0-0--|--3-5-3--|

  |-------------------|----------|-------------------|-------------------|
  |-------------------|----------|-------------------|-------------------|
  |-------------------|----------|-------------------|-------------------|
  |--0-0-0-0-0-0-0-0--|----------|--1-1-1-1-1-1-1-1--|--1-1-1-1-1-1-1-1--|

  |-------------------|-------------------|-------------------|---------|
  |-------------------|-------------------|-------------------|---------|
  |-------------------|-------------------|-------------------|---------|
  |--1-1-1-1-1-1-1-1--|--1-1-1-1-1-1-1-1--|--0-0-0-0-0-0-0-0--|--3-5-3--|

  |-------------------|----------|--------|--------|-------------------|
  |-------------------|----------|--------|--------|-------------------|
  |-------------------|----------|-----3--|-----5--|--7-7-7-7-7-7-7-7--|
  |--1-1-1-1-1-1-1-1--|----------|--------|--------|-------------------|

  |-------------------|-------------------|-------------------|--------|
  |-------------------|-------------------|-------------------|--------|
  |--7-7-7-7-7-7-7-7--|--7-7-7-7-7-7-7-7--|--7-7-7-7-7-7-7-7--|-----3--|
  |-------------------|-------------------|-------------------|--------|

  |--------|--------|----------|--------|--------|---------|--------|
  |--------|--------|----------|--------|--------|---------|--------|
  |-----5--|-----7--|----------|-----7--|-----8--|-----12--|-----7--|
  |--------|--------|----------|--------|--------|---------|--------|

  |--------|--------|---------|--------|-------------------------|
  |--------|--------|---------|--------|-------------------------|
  |-----7--|-----8--|-----12--|-----7--|--7-5---7-5---7-5---7-5--|
  |--------|--------|---------|--------|------7-----7-----7------|

  |-------------------------|-------------------------|
  |-------------------------|--7-5---7-5---7-5---7-5--|
  |--7-5---7-5---7-5---7-5--|------7-----7-----7------|
  |------7-----7-----7------|-------------------------|

  |-------------------------|-------------------------|
  |-------------------------|-------------------------|
  |--7-5---7-5---7-5---7-5--|--7-5---7-5---7-5---7-5--|
  |------7-----7-----7------|------7-----7-----7------|

  |-------------------------|-------------------------|
  |-------------------------|--7-5---7-5---7-5---7-5--|
  |--7-5---7-5---7-5---7-5--|------7-----7-----7------|
  |------7-----7-----7------|-------------------------|

  |-------------------------|-------------------|-------------------|
  |-------------------------|-------------------|-------------------|
  |--7-5---7-5---7-5---7-5--|--7-7-7-7-7-7-7-7--|--7-7-7-7-7-7-7-7--|
  |------7-----7-----7------|-------------------|-------------------|

  |-------------------|-------------------|-------------------|
  |-------------------|-------------------|-------------------|
  |--5-5-5-5-5-5-5-5--|--5-5-5-5-5-5-5-5--|--3-3-3-3-3-3-3-3--|
  |-------------------|-------------------|-------------------|

  |-------------------|-------------------|-------------------|
  |-------------------|-------------------|-------------------|
  |--3-3-3-3-3-3-3-3--|--2-2-2-2-2-2-2-2--|--3-3-3-3-3-3-5-5--|
  |-------------------|-------------------|-------------------|

  |-------------------|-------------------|-------------------|
  |-------------------|-------------------|-------------------|
  |--7-7-7-7-7-7-7-7--|--7-7-7-7-7-7-7-7--|--5-5-5-5-5-5-5-5--|
  |-------------------|-------------------|-------------------|

  |-------------------|-------------------|-------------------|
  |-------------------|-------------------|-------------------|
  |--5-5-5-5-5-5-5-5--|--3-3-3-3-3-3-3-3--|--3-3-3-3-3-3-3-3--|
  |-------------------|-------------------|-------------------|
[ Tab from: http://www.guitartabs.cc/tabs/i/iron_maiden/prowler_btab.html ]
  |-------------------|-------------------|-------------------|
  |-------------------|-------------------|-------------------|
  |--2-2-2-2-2-2-2-2--|--3-3-3-3-3-3-5-5--|--7-7-7-7-7-7-7-7--|
  |-------------------|-------------------|-------------------|

  |-------------------|-------------------|-------------------|
  |-------------------|-------------------|-------------------|
  |--7-7-7-7-7-7-7-7--|--5-5-5-5-5-5-5-5--|--5-5-5-5-5-5-5-5--|
  |-------------------|-------------------|-------------------|

  |-------------------|-------------------|-------------------|
  |-------------------|-------------------|-------------------|
  |--3-3-3-3-3-3-3-3--|--3-3-3-3-3-3-3-3--|--2-2-2-2-2-2-2-2--|
  |-------------------|-------------------|-------------------|

  |-------------------|-----------|-----------|-----------|-----------|
  |-------------------|-----------|-----------|-----------|-----------|
  |--3-3-3-3-3-3-5-5--|--7-7-7-7--|--7-7-7-7--|--5-5-5-5--|--5-5-5-5--|
  |-------------------|-----------|-----------|-----------|-----------|

  |-----------|-----------|-----------|-----------|-----------|-----------|
  |-----------|-----------|-----------|-----------|-----------|-----------|
  |--3-3-3-3--|--3-3-3-3--|--2-2-2-2--|--3-3-3-5--|--7-7-7-7--|--7-7-7-7--|
  |-----------|-----------|-----------|-----------|-----------|-----------|

  |-----------|-----------|--------|--------|-------------------|
  |-----------|-----------|--------|--------|-------------------|
  |--5-5-5-5--|--5-5-5-5--|-----3--|-----5--|--7-7-7-7-7-7-7-7--|
  |-----------|-----------|--------|--------|-------------------|

  |-------------------|-------------------|-------------------|--------|
  |-------------------|-------------------|-------------------|--------|
  |--7-7-7-7-7-7-7-7--|--7-7-7-7-7-7-7-7--|--7-7-7-7-7-7-7-7--|-----3--|
  |-------------------|-------------------|-------------------|--------|

  |--------|-------------------|-------------------|-------------------|
  |--------|-------------------|-------------------|-------------------|
  |-----5--|--7-7-7-7-7-7-7-7--|--7-7-7-7-7-7-7-7--|--7-7-7-7-7-7-7-7--|
  |--------|-------------------|-------------------|-------------------|

  |-------------------|-------------------|-------------------|
  |-------------------|-------------------|-------------------|
  |--7-7-7-7-7-7-7-7--|--5-5-5-5-5-5-5-5--|--5-5-5-5-5-5-5-5--|
  |-------------------|-------------------|-------------------|

  |-------------------|-------------------|-------------------|
  |-------------------|-------------------|-------------------|
  |--7-7-7-7-7-7-7-7--|--7-7-7-7-7-7-7-7--|--7-7-7-7-7-7-7-7--|
  |-------------------|-------------------|-------------------|

  |-------------------|-------------------|-------------------|
  |-------------------|-------------------|-------------------|
  |--7-7-7-7-7-7-7-7--|--7-7-7-7-7-7-7-7--|--7-7-7-7-7-7-7-7--|
  |-------------------|-------------------|-------------------|

  |-------------------|-------------------|-------------------|
  |-------------------|-------------------|-------------------|
  |--5-5-5-5-5-5-5-5--|--5-5-5-5-5-5-5-5--|--7-7-7-7-7-7-7-7--|
  |-------------------|-------------------|-------------------|

  |---------|-------------------|-------------------|-------------------|
  |---------|-------------------|-------------------|-------------------|
  |---------|-------------------|-------------------|-------------------|
  |--3-5-3--|--1-1-1-1-1-1-1-1--|--1-1-1-1-1-1-1-1--|--1-1-1-1-1-1-1-1--|

  |-------------------|-------------------|---------|-------------------|
  |-------------------|-------------------|---------|-------------------|
  |-------------------|-------------------|---------|-------------------|
  |--1-1-1-1-1-1-1-1--|--0-0-0-0-0-0-0-0--|--3-5-3--|--0-0-0-0-0-0-0-0--|

  |----------|-------------------|-------------------|-------------------|
  |----------|-------------------|-------------------|-------------------|
  |----------|-------------------|-------------------|-------------------|
  |----------|--1-1-1-1-1-1-1-1--|--1-1-1-1-1-1-1-1--|--1-1-1-1-1-1-1-1--|

  |-------------------|-------------------|---------|-------------------|
  |-------------------|-------------------|---------|-------------------|
  |-------------------|-------------------|---------|-------------------|
  |--1-1-1-1-1-1-1-1--|--0-0-0-0-0-0-0-0--|--3-5-3--|--0-0-0-0-0-0-0-0--|

  |--------|--------|-------------------|-------------------|
  |--------|--------|-------------------|-------------------|
  |-----3--|-----5--|--7-7-7-7-7-7-7-7--|--7-7-7-7-7-7-7-7--|
  |--------|--------|-------------------|-------------------|

  |-------------------|-------------------|--------|--------|
  |-------------------|-------------------|--------|--------|
  |--7-7-7-7-7-7-7-7--|--7-7-7-7-7-7-7-7--|-----3--|-----5--|
  |-------------------|-------------------|--------|--------|

  |-------------------|-------------------|-------------------|
  |-------------------|-------------------|-------------------|
  |--7-7-7-7-7-7-7-7--|--7-7-7-7-7-7-7-7--|--7-7-7-7-7-7-7-7--|
  |-------------------|-------------------|-------------------|

  |-------------------|-------------------|-------------------|
  |-------------------|-------------------|-------------------|
  |--7-7-7-7-7-7-7-7--|--7-7-7-7-7-7-7-7--|--7-7-7-7-7-7-7-7--|
  |-------------------|-------------------|-------------------|

  |-------------------|-------------------|-------------------|
  |-------------------|-------------------|-------------------|
  |--7-7-7-7-7-7-7-7--|--7-7-7-7-7-7-7-7--|--7-7-7-7-7-7-7-7--|
  |-------------------|-------------------|-------------------|

  |--------|
  |--------|
  |-----7--|
  |--------|