Iron Maiden - Prodigal Son Chords & Tabs

 

Prodigal Son Chords & Tabs

Iron Maiden Chords & Tabs

Version: 1 Type: Chords 0 ratings
1 star 2 stars 3 stars 4 stars 5 stars
comments

Prodigal Son Chords

   
#----------------------------------PLEASE NOTE--------------------------------#
#This file is the author's own work and represents their interpretation of the#
#song. You may only use this file for private study, scholarship, or research.#
#-----------------------------------------------------------------------------#

Date: Tue, 2 Jun 1998 14:41:39 -0400 (EDT)
From: Jimmy Pena 
Subject: i/iron_maiden/prodigal_son.tab


IRON MAIDEN   Prodigal Son
from the album Killers (1981)

Originally tabbed by schwebel@labri.u-bordeaux.fr (Olivier SCHWEBEL [93-94])
Slight correction by Jimmy Pena . Note the chord change
in Riff A.

Intro:

||-------------0------------0------------0---------------------||
||------0-----0------0-----0------0-----0----------------------||
||o----8-----8------6-----6------5-----5------1h2p1-----1h2p1-o||
||o---9-----9------7-----7------5-----5------2-----2---2------o||
||---9-----9------7-----7------5-----5------2---------2--------||
||--7-----7------5-----5------3-----3------0---------0---------||


    strum ....................
||--0------0------0------0------||
||--0------0------0------0------||
||o-8-/-/--6-/-/--4-/-/--1-/-/-o||
||o-9-/-/--7-/-/--5-/-/--2-/-/-o||
||--9------7------5------2------||
||--7------5------3------0------||

[ Tab from: http://www.guitartabs.cc/tabs/i/iron_maiden/prodigal_son_crd.html ]
   Riff A                                                      (end Riff A)
||--------------------------------------------------------------------------||
||-----0----------0----------0----------2-----3-2-3-2------0----------0-----||
||-----1-/-/------1-/-/------1-/-/------2-/-/-2-2-2-2------1-/-/------1-/-/-||
||-5-7-2-/-/--5-7-2-/-/--5-7-2-/-/--5-2-2-/-/-4-2-4-2--5-7-2-/-/--5-7-2-/-/-||
||-5-7-2------5-7-2------5-7-2------5-2-0-----0-0-0-0--5-7-2------5-7-2-----||
||-3-5-0------3-5-0------3-5-0------3-0----------------3-5-0------3-5-0-----||



Em                  G                                       Riff B
---------------------                                     |-------------------|
Am                       C                 D [w/ Riff B]  |-3---3---3-3-3-----|
------------------------------------------------          |-0h2-0h2-0-2-0h2p0-|
Em                          G                             |-0---0---0-0-0-----|
---------------------------------                       . |-------------------|
Am                      C                 D [w/ Riff B]   |-------------------|
--------------------------------.

Em                G 
--------------------.
Am                             C                        D [w/ Riff B]     
---------------------------------------------------------
Em                              G
----------------------------------
Am                                C                        D
------------------------------------------------------------



            OLIVIER SCHWEBEL
      (schwebel@labri.u-bordeaux.fr)
*****************************************
* I found smog at the end of my rainbow *
*               MARILLION               *
*****************************************
Comments