Iron Maiden - Paschendale Chords & Tabs

 

Paschendale Chords & Tabs

Iron Maiden Chords & Tabs

Version: 1 Type: Tab 4 ratings
1 star 2 stars 3 stars 4 stars 5 stars
comments

Paschendale Tab

   
part "A"     4x

E|-----0h10t12---0h8t12---0h7t12---0h5t12---0h7t12-------------------||
B|-------------------------------------------------------------------||
G|-------------------------------------------------------------------||
D|-------------------------------------------------------------------||
A|-------------------------------------------------------------------||
E|-------------------------------------------------------------------||

E|-----0h7t12---0h5t12---0h3t12---0h2t12---0--t12--------------------||
B|-------------------------------------------------------------------||
G|-------------------------------------------------------------------||
D|-------------------------------------------------------------------||   
A|--------------------------------------------  don't play the last
E|--------------------------------------------  t12 the fourth times 


0:28
part "B"

E|-------------------------------------------------------------------||
B|-------------------------------------------------------------------||
G|--9-9---7-7---5-5---4-4-----5-5---4-4---2-2------------------------||
D|--9-9---7-7---5-5---4-4-----5-5---4-4---2-2---2-2------------------||
A|--7-7---5-5---3-3---2-2-----3-3---2-2---0-0---2-2------------------||
E|----------------------------------------------0-0------------------||

E|-------------------------------------------------------------------||
B|-------------------------------------------------------------------||
G|--9-9---7-7---5-5---4-4-----5-5---7-7---7-7---9-9------------------||
D|--9-9---7-7---5-5---4-4-----5-5---7-7---7-7---9-9------------------||
A|--7-7---5-5---3-3---2-2-----3-3---5-5---5-5---7-7------------------||
E|-------------------------------------------------------------------||


0:45
part "A"     3x     (don't play the last t12 the third times)


1:02
part "C - 1"     1x

E|-------------------------------------------------------------------||
B|-------------------------------------------------------------------||
G|--5-5---4-4---2-2--------------------------------------------------||
D|--5-5---4-4---2-2---5-5-------------7-7---5-5---4-4---2-2---2/2--||
A|--3-3---2-2---0-0---5-5---54/5-----7-7---5-5---4-4---2-2---2/2--||
E|--------------------3-3---32/3-----5-5---3-3---2-2---0-0----------||


part "C - 2"     1x

E|-------------------------------------------------------------------||
B|-------------------------------------------------------------------||
G|--5-5---4-4---2-2--------------------------------------------------||
D|--5-5---4-4---2-2---5-5-------------7-7---5-5---4-4---2-2----------||
A|--3-3---2-2---0-0---5-5---54/5-----7-7---5-5---4-4---2-2----------||
E|--------------------3-3---32/3-----5-5---3-3---2-2---0-0----------||


1:13
part "D"

E|-------------------------------------------------------------------||
B|-------------------------------------------------------------------||
G|---7/9-9-9-9--7-7-7/9-9--9----9-9-9-9--5-5-5/7-7--7----------------||
D|---7/9-9-9-9--7-7-7/9-9--9----9-9-9-9--5-5-5/7-7--7----------------||
A|---5/7-7-7-7--5-5-5/7-7--7----7-7-7-7--3-3-3/5-5--5----------------||
E|-------------------------------------------------------------------||

E|-------------------------------------------------------------------||
B|-------------------------------------------------------------------||
G|---7/9-9-9-9--7-7-7/9-9--9----12-12-12-12--5-5-5/7-7--7------------||
D|---7/9-9-9-9--7-7-7/9-9--9----12-12-12-12--5-5-5/7-7--7------------||
A|---5/7-7-7-7--5-5-5/7-7--7----10-10-10-10--3-3-3/5-5--5------------||
E|-------------------------------------------------------------------||

E|-------------------------------------------------------------------||
B|-------------------------------------------------------------------||
G|---7/9-9-9-9--7-7-7/9-9--9----9-9-9-9--5-5-5/7-7--7----------------||
D|---7/9-9-9-9--7-7-7/9-9--9----9-9-9-9--5-5-5/7-7--7----------------||
A|---5/7-7-7-7--5-5-5/7-7--7----7-7-7-7--3-3-3/5-5--5----------------||
E|-------------------------------------------------------------------||

E|-------------------------------------------------------------------||
B|-------------------------------------------------------------------||
G|---7/9-9-9-9--7-7-7/9-9--9----12-12-12-12--------------------------||
D|---7/9-9-9-9--7-7-7/9-9--9----12-12-12-12--5-5-5/7-7--7------------||
A|---5/7-7-7-7--5-5-5/7-7--7----10-10-10-10--5-5-5/7-7--7------------||
E|-------------------------------------------3-3-3/5-5--5------------||


1:35
part "E"

E|-------------------------------------------------------------------||
B|-------------------------------------------------------------------||
G|--------5--------------7--------5--------------7-------------------||
D|--2-----5--5--2-----5--7--2-----5--5--2-----5--7-------------------||
A|--2-----3--5--2-----5--5--2-----3--5--2-----5--5-------------------||
E|--0--------3--0-----3-----0--------3--0-----3----------------------||


1:45
part "C - 1"     3x


part "C - 2"     1x


2:07
part "F"     2x

E|-------------------------------------------------------------------||
B|-------------------------------------------------------------------||
G|--9---9--9-9--9--12--5--7---7--7-7--7--4--7------------------------||
D|--9---9--9-9--9--12--5--7---7--7-7--7--4--7------------------------||
A|--7---7--7-7--7--10--3--5---5--5-5--5--2--5------------------------||
E|-------------------------------------------------------------------||

E|-------------------------------------------------------------------||
B|-------------------------------------------------------------------||
G|--9---9--9-9--9--12--5--5--7-7-------------------------------------||
D|--9---9--9-9--9--12--5--5--7-7-------------------------------------||
A|--7---7--7-7--7--10--3--3--5-5-------------------------------------||
E|-------------------------------------------------------------------||


2:28
part "G"     1x

E|-------------------------------------------------------------------||
B|-------------------------------------------------------------------||
G|--2-2--4-4--5-5--7-7--2-2--4-4--5-5--7-7-7-------------------------||
D|--2-2--4-4--5-5--7-7--2-2--4-4--5-5--7-7-7-------------------------||
A|--0-0--2-2--3-3--5-5--0-0--2-2--3-3--5-5-5-------------------------||
E|-------------------------------------------------------------------||

E|-------------------------------------------------------------------||
B|-------------------------------------------------------------------||
G|--2-2--4-4--5-5--7-54--2-2--4-4--5-5--7---------------------------||
D|--2-2--4-4--5-5--7-54--2-2--4-4--5-5--7---------------------------||
A|--0-0--2-2--3-3--5-32--0-0--2-2--3-3--5---------------------------||
E|-------------------------------------------------------------------||


2:49
part "C - 1"     4x

part "C - 2"     1x


3:20
part "H"     4x
[ Tab from: http://www.guitartabs.cc/tabs/i/iron_maiden/paschendale_tab.html ]
guitar 1     4x
E|-------------------------------------------------------------------||
B|--5--7-8--5----7--8-10--7----8--10-12--8--10--7--8-----------------||
G|----------------------------------------------------4--------------||
D|-------------------------------------------------------------------||
A|-------------------------------------------------------------------||
E|-------------------------------------------------------------------||

guitar 2     last 3x
E|-------------------------------------------------------------------||
B|-------------------------------------------------------------------||
G|-------------------------------------------------------------------||
D|--2--4-5--2----4--5-7--4----5--7-9--5--7--4--5---------------------||
A|------------------------------------------------2------------------||
E|-------------------------------------------------------------------||

guitar 3     last 2x
E|--12--14-15--12----14--15-17--14----15--17-19--15--17--14--15------||
B|---------------------------------------------------------------12--||
G|-------------------------------------------------------------------||
D|-------------------------------------------------------------------||
A|-------------------------------------------------------------------||
E|-------------------------------------------------------------------||


3:42
part "I"     4x

guitar 1 with chords, 
guitar 2 only the root note
E|-------------------------------------------------------------------||
B|-------------------------------------------------------------------||
G|----------4------------4---------------------------7---------------||
D|----------4------------4---------------------------7---------------||
A|--------0-2----3-2-0-3-2----3-2-0------0-2-0-------5---------------||
E|--0-2-3---------------------------3----------3-2-0-----------------||

guitar 3     last 2x
E|-------------------------------------------------------------------||
B|-------------------------------------------------------------------||
G|-------------------------------------------------------------------||
D|---------7-9----10-9-7-10-9----10-9-7-------7-9-7------------------||
A|--7-9-10------------------------------10----------10-9-7--5--------||
E|-------------------------------------------------------------------||


4:03
part ""J"

E|-------------------------------------------------------------------||
B|-------------------------------------------------------------------||
G|--7-9-9-9-9--5-5-5--7-7--7-----7-7-7-7--4-4-4--5-5--5--------------||
D|--7-9-9-9-9--5-5-5--7-7--7-----7-7-7-7--4-4-4--5-5--5--------------||
A|--5-7-7-7-7--3-3-3--5-5--5-----5-5-5-5--2-2-2--3-3--3--------------||
E|-------------------------------------------------------------------||

E|-------------------------------------------------------------------||
B|-------------------------------------------------------------------||
G|--9-9-9-9--5-5-5--7-7--7-----7-7-7-7--4-4-4--5-5--5----------------||
D|--9-9-9-9--5-5-5--7-7--7-----7-7-7-7--4-4-4--5-5--5----------------||
A|--7-7-7-7--3-3-3--5-5--5-----5-5-5-5--2-2-2--3-3--3----------------||
E|------------------------------------------------------3-2-0--------||

E|-------------------------------------------------------------------||
B|-------------------------------------------------------------------||
G|--9-9-9-9--5-5-5--7-7--7-----7-7-7-7--4-4-4--5-5--5----------------||
D|--9-9-9-9--5-5-5--7-7--7-----7-7-7-7--4-4-4--5-5--5----------------||
A|--7-7-7-7--3-3-3--5-5--5-----5-5-5-5--2-2-2--3-3--3----------------||
E|-------------------------------------------------------------------||

E|-------------------------------------------------------------------||
B|-------------------------------------------------------------------||
G|--9-9-9-9--5-5-5--7-7--7-----7-7-7-7--4-4-4--5-5--5----------------||
D|--9-9-9-9--5-5-5--7-7--7-----7-7-7-7--4-4-4--5-5--5----------------||
A|--7-7-7-7--3-3-3--5-5--5-----5-5-5-5--2-2-2--3-3--3----------------||
E|-------------------------------------------------------------------||


4:24
part "E"     1x

E|-------------------------------------------------------------------||
B|-------------------------------------------------------------------||
G|--------5--------------7--------5--------------7-------------------||
D|--2-----5--5--2-----5--7--2-----5--5--2-----5--7--2----------------||
A|--2-----3--5--2-----5--5--2-----3--5--2-----5--5--2----------------||
E|--0--------3--0-----3-----0--------3--0-----3-----0----------------||



part "H"

4:42
solo 1     3x
E|-------------------------------------------------------------------||
B|-------------------------------------------------------------------||
G|--9-----9-----9-----9------7--7-----7-----7-----7-----7------7--7--||
D|--9-----9-----9-----9------5--5-----7-----7-----7-----7------5--5--||
A|----7-7---7-7---7-7---7-7-------------5-5---5-5---5-5---5-5--------||
E|-------------------------------------------------------------------||

E|-------------------------------------------------------------------||
B|-------------------------------------------------------------------||
G|--9-----9-----9-----9------7--7-----7-----7-----7-----7------9--9--||
D|--9-----9-----9-----9------5--5-----7-----7-----7-----7------7--7--||
A|----7-7---7-7---7-7---7-7-------------5-5---5-5---5-5---5-5--------||
E|-------------------------------------------------------------------||

5:14
solo 2     4x
E|-------------------------------------------------------------------||
B|-------------------------------------------------------------------||
G|--6-----6-----6-----6------4--4-----4-----4-----4-----4------6--6--||
D|--6-----6-----6-----6------2--2-----4-----4-----4-----4------4--4--||
A|----4-4---4-4---4-4---4-4-------------2-2---2-2---2-2---2-2--------||
E|-------------------------------------------------------------------||

5:35
voice     4x
E|-------------------------------------------------------------------||
B|-------------------------------------------------------------------||
G|-------------------------------------------------------------------||
D|--6-----6-----6-----6------4--4-----4-----4-----4-----4------6--6--||
A|--6-----6-----6-----6------2--2-----4-----4-----4-----4------4--4--||
E|----4-4---4-4---4-4---4-4-------------2-2---2-2---2-2---2-2--------||

5:55
solo 3     4x
E|-------------------------------------------------------------------||
B|-------------------------------------------------------------------||
G|--7-----7-----7-----7------5--5-----5-----5-----5-----5------7--7--||
D|--7-----7-----7-----7------3--3-----5-----5-----5-----5------5--5--||
A|----5-5---5-5---5-5---5-5-------------3-3---3-3---3-3---3-3--------||
E|-------------------------------------------------------------------||


6:15
part "C - 1"     5x


part "C - 2"     1x



6:46
part "F"     4x



7:27
part "E"     1x

E|-------------------------------------------------------------------||
B|-------------------------------------------------------------------||
G|--------5--------------7--------5--------------7-------------------||
D|--2-----5--5--2-----5--7--2-----5--5--2-----5--7--2----------------||
A|--2-----3--5--2-----5--5--2-----3--5--2-----5--5--2----------------||
E|--0--------3--0-----3-----0--------3--0-----3-----0----------------||


7:49
part "A"     4x
Comments