Iron Maiden - Paschendale Chords & Tabs

 

Paschendale Chords & Tabs

Iron Maiden Chords & Tabs

Version: 1 Type: Bass Tab 0 ratings
1 star 2 stars 3 stars 4 stars 5 stars
comments

Paschendale Bass Tab

Iron Maiden: "Paschendale" 
Album: Dance Of Death
Tabbed By: Benjamin Jonathon Hands 

(0:18)
G------------------------------
D-10-9-7----7------------------
A--------10---10-9-7-----------
E------------------------------

(0:29)
G------------------------------------------------------------------------
D------------------------------------------------------------------------
A-7-7-5-5-------------------------7-7-5-5-------------5-5-7-7------------
E--------8-8-7-7--8-8-7-7-5-5-0-0--------8-8-7-7--8-8--------0-0---------

(0:51)
G------------------------------
D-10-9-7----7------------------
A--------10---10-9-7-----------
E------------------------------

(1:02)
G-------------------------------------
D-------------------------------------
A-3-3-2-2-0-0----0-0------------------
E------------3-3----3-3-2-2-0-0-------

(1:13)
G-------------------------------------------------------------------------
D--------------5-5-5-7-5-4------------------------------------------------
A-7-7-7-7-5-7-7-----------7-5-5-5---7-7-7-7-5-7-7--3-3-3-3-5-5-5----------
E-------------------------------------------------------------------------

(1:34)
G-----------------------------
D-----------------------------
A---3-------5-----------------
E-0---3-0-3---0---------------

(1:46)
G--------------------------------------
D--------------------------------------
A-3-3-2-2-0-0----0-0-------------------
E-------------3-3---3-3-2-2-0-0--------

(2:07)
G--------------------------------------
D----5-------------5-------------------
A-7----3-5--2-5-7----7-5-3-5-5---------
E--------------------------------------

(2:28)
G----------------------
D----------------------
A-0--2--3--5-----------
E----------------------

(2:49)
G--------------------------------------
D--------------------------------------
A-3-3-2-2-0-0---0-0--------------------
E------------3-3---3-3-2-2-0-0---------

(3:26)
G-------------------------------
D-------------------------------
A----------2-3--2-0-------------
E-0-2--3-5----------3-2---------
[ Tab from: http://www.guitartabs.cc/tabs/i/iron_maiden/paschendale_btab.html ]
(3:42)
G-------------------------------------------------------
D-------------------------------------------------------
A-------0-2--3-2-0-3-2---3-2-0--------------5-----------
E-0-2-3-----------------------3-3-5-3-2-0-0-------------

(4:03)
G-----------------------------------------
D-----------------------------------------
A-7-7-7-7-3-5-5--5-5-5-2-2-3-3------------
E-----------------------------------------

(4:24)
G-----------------------------
D-----------------------------
A---3-------5-----------------
E-0---3-0-3---0---------------

(4:47)
G------------------------------------------------
D------------------5-5---------------------------
A-7-7-7-7-7-7-7-7-7---5-5-5-5-5-5-5--2-5---------
E------------------------------------------------

(5:14)
G--------------------------------------------
D----------------2-2-------------------------
A-4-4-4-4-4-4-4-4---2-2-2-2-2-2---2----------
E-------------------------------4------------

(5:34)
G-----------------------------------
D-----------------------------------
A-------------------------4-4-------
E-4-4-4-4-4-4-2-2-2-2-2-2-----------

(5:54)
G-----------------------------------
D--------3-3-----------5-5----------
A-5-5-5-5---3-3-3-3-3-3-------------
E-----------------------------------

(6:15)
G--------------------------------------
D--------------------------------------
A-3-3-2-2-0-0---0-0--------------------
E------------3-3---3-3-2-2-0-0---------

(6:46)
G--------------------------------------
D----5-------------5-------------------
A-7----3-5--2-5-7----7-5-3-5-5---------
E--------------------------------------

(7:26)
G-----------------------------
D-----------------------------
A---3-------5-----------------
E-0---3-0-3---0---------------

(8:00-until end)
G------------------------------
D-10-9-7----7------------------
A--------10---10-9-7----------- 
E------------------------------

There you go the whole 8:27 seconds of it! Any questions or anything E-mail on...

The_Jackass_Boi@hotmail.com

Goodbye...Have Fun!!!!


















Comments