Iron Maiden - Number Of The Beast Chords & Tabs

 

Number Of The Beast Chords & Tabs

Iron Maiden Chords & Tabs

Version: 6 Type: Tab 0 ratings
1 star 2 stars 3 stars 4 stars 5 stars
comments

Number Of The Beast Tab

intro

riff 1
--------------------------------------------------------------------
--------------------------------------------------------------------
--------------------------------------------------------------------
--------------------------------------------------------------------   x2
---------9-9-10-10-12--x--x-12--x--x-12--x--x-12--x--x-12-----------
---10-10-----------10-10-10-10-10-10-10-10-10-10-10-10-10-----------

[ Tab from: http://www.guitartabs.cc/tabs/i/iron_maiden/number_of_the_beast_tab_ver_6.html ]
riff 2
--------------------------------------------------------------------
--------------------------------------------------------------------
--------------------------------------------------------------------
--------------------------------------------------------------------
-------7-7-8-8-10-x-x-10-x-x-10-x-x-10-x-x-10-----------------------
---8-8----------8-8-8--8-8-8--8-8-8--8-8-8--8-----------------------



after playing riff 2 once again start from riff 1
Comments