Iron Maiden - No Prayer For The Dying Chords & Tabs

 

No Prayer For The Dying Chords & Tabs

Iron Maiden Chords & Tabs

Version: 4 Type: Tab 0 ratings
1 star 2 stars 3 stars 4 stars 5 stars
comments

No Prayer For The Dying Tab

   
--------------------------------------------------------------------------
                  NO PRAYER FOR THE DYING - Iron Maiden
--------------------------------------------------------------------------

Song: No More Lies (Steve Harris)
Band: Iron Maiden
Album: No Prayer For The Dying (1990)


Tabbed by: Federico "Zibilico" Abecasis
E-mail: zibilico@hotmail.com

This is the whole song except for the solo that I didn't try to find out.
Any question or sugestion there's my e-mail address.



Intro

e|--|  e|----------------------------------------------| x4
B|--|  B|10/12-10----10--------------------------------|
G|9-|  G|---------12----12-11--------------------12-9--|
D|--|  D|---------------------12-----12----10-12-------|
A|--|  A|-------------------------12----12-------------|
E|--|  E|----------------------------------------------|



Riff 1


Guitar 1 x4

e|--------------|
B|--------------|
G|9--7------5---|
D|9--7---9--5---|
A|7--5---9--3---|
E|-------7------|

Guitar 2 x4

e|3-2---|
B|----3-|
G|------|
D|------|
A|------|
E|------|


Riff 2


Guitar 1

e|---------------------------------------------------------| x3
B|----------10---------------------------10----------------|
G|--9-11-12----12-11-12-11---------11-12----12-11-9----9---|
D|9------------------------12---12------------------12-----|
A|---------------------------------------------------------|
E|---------------------------------------------------------|

e|----------------------------------------------------|
B|----------10------------------12-13-13/15-13-12-----|
G|--9-11-12----12-11-12-11------------------------12--|
D|9------------------------12-------------------------|
A|----------------------------------------------------|
E|----------------------------------------------------|

Guitar 2
[ Tab from: http://www.guitartabs.cc/tabs/i/iron_maiden/no_prayer_for_the_dying_tab_ver_4.html ]
e|----------------------------------| x3
B|----------------------------------|
G|9-9-9-9-9---7----------------5----|
D|9-9-9-9-9---7----9-9-9-9-9---5----|
A|7-7-7-7-7---5----9-9-9-9-9---3----|
E|-----------------7-7-7-7-7--------|

e|--------------------------|
B|--------------------------|
G|9-9-9-9-9---7--------5----|
D|9-9-9-9-9---7----9---5----|
A|7-7-7-7-7---5----9---3----|
E|-----------------7--------|

Repeat Riff 1


Repeat Riff 2


Repeat Intro


Riff 3

e|--------------------------------------------------| x2
B|--------------------------------------------------|
G|7/9-9-9-9-9--7/9-9-9-9-9--5-5--7-7--7/9-9-9-9-9---|
D|7/9-9-9-9-9--7/9-9-9-9-9--5-5--7-7--7/9-9-9-9-9---|
A|5/7-7-7-7-7--5/7-7-7-7-7--3-3--5-5--5/7-7-7-7-7---|
E|--------------------------------------------------|


Solo


Background for Solo part 1 x4

e|------------------------| X2   e|------------------------| X2
B|------------------------|      B|------------------------|
G|------------------------|      G|------------------------|
D|5-5-7-5-7-5-5-7-5-7-5-7-|      D|2-2-4-2-4-2-2-4-2-4-2-4-|
A|------------------------|      A|------------------------|
E|------------------------|      E|------------------------|


Background for Solo part 2 x4

e|-------------------------|
B|-------------------------|
G|7--9----7--9----7--9-----|
D|7--9----7--9----7--9-----|
A|5--7----5--7----5--7-----|
E|-------------------------|


Riff 4

e|---------------------| x4
B|---------------------|
G|9----7---------5--7--|
D|9----7----9----5--7--|
A|7----5----9----3--5--|
E|----------7----------|


Outro

e|--|  e|----------------------------------------------| x4
B|--|  B|10/12-10----10--------------------------------|
G|9-|  G|---------12----12-11--------------------12-9--|
D|--|  D|---------------------12-----12----10-12-------|
A|--|  A|-------------------------12----12-------------|
E|--|  E|----------------------------------------------|
Comments