Iron Maiden - No More Lies Chords & Tabs

 

No More Lies Chords & Tabs

Iron Maiden Chords & Tabs

Version: 5 Type: Tab 0 ratings
1 star 2 stars 3 stars 4 stars 5 stars
comments

No More Lies Tab

IRON MAIDEN              no more lies

Tabbed by: johnny
Email:     z3133045@studnet.unsw.edu.au

Tuning:

e|---------------------------------------------------------------------------|
B|---------------------------------------------------------------------------|
G|-------------------------------------------------------11------------------|
D|-----13p11h13----13p11h13-13----13p11h13-13---11-13-14----14-13---11-13-11-|
A|--11----------11-------------11--------------------------------------------|
E|---------------------------------------------------------------------------|
[ Tab from: http://www.guitartabs.cc/tabs/i/iron_maiden/no_more_lies_tab_ver_5.html ]
e|---------------------------------------------------------------------------|
B|---------------------------------------------------------------------------|
G|---------------------------------------------------------------------------|
D|----------------------------11--------------------------11-----------------|
A|--14-14--13h14p13-14-14--14----14-13-13--11-13-11-13-----------------------|
E|-----------------------------------------------------14--------------------|

e|---------------------------------------------------------------------------|
B|---------------------------------------------------------------------------|
G|---------------------------------------------------------------------------|
D|-----13-13-13-13-13-11-13-----(13)-----11-11-11-11-11-13/14/13--11/13------|
A|--11----------------------(11)---------------------------------------------|
E|------------------------------------14-------------------------------------|

e|---------------------------------------------------------------------------|
B|---------------------------------------------------------------------------|
G|-----16/17/16----16/17/16----16/17/16--16h19-17-16-17-16-------------------|
D|--19----------19----------19-----------------------------17----------------|
A|---------------------------------------------------------------------------|
E|---------------------------------------------------------------------------|
Comments