Iron Maiden - No More Lies Chords & Tabs

 

No More Lies Chords & Tabs

Iron Maiden Chords & Tabs

Version: 1 Type: Tab 1 rating
1 star 2 stars 3 stars 4 stars 5 stars
comments

No More Lies Tab

Iron maiden-No more lies-guitar tab
No solo!! =(

Tabbed and submitted by The crazymonkey a.k.a: Jón Atli Magnússon, from ICELAND

I was trying to get the tabs for the new Dance of death album from Iron maiden
but i could only find some intro's and stuff...so i just thougt, well isn't it time u gave something back,
after all i have taken so much from this site and it has helped me a great deal..my second year of playing and i'm already playing
Iron maiden stuff..witch for me is a great deal, cuz they my heroes!! =Þ

Use a DROP D TUNING

Intro 1 part = 2x
e:[-------------------------------------------------------------------]
B:[--------------------------------------------------------------8----]
G:[------9--7--9----7--9—7--9-9---7-9-7-9-9---7--9--10—10-9-7-9-7-----]
D:[---7------------------------------------------------------------10-]
A:[-------------------------------------------------------------------]
E:[-------------------------------------------------------------------]

e:[-------------------------------------------------------------------]
B:[-------------------------------------------------------------------]
G:[---------------------------------------7---------------------------]
D:[--10-9-10-9-10-10-9-10-9-7-7-5-7-5-7-5-----------------------------]     
A:[-------------------------------------------------------------------]
E:[-------------------------------------------------------------------]

Intro part 2
[ Tab from: http://www.guitartabs.cc/tabs/i/iron_maiden/no_more_lies_tab.html ]
e:[------------------------------------]
B:[------------------------------------]
G:[----9-9-9-9-7-9----9-9-9-9-10-9-7-9-]2x and in the end instead of 9-9-9-9-10-9-7-9 you go 
D:[--7---------------7-----------------]   9-9-9-9-10-9-10-9....u'll c 1 u get there. =)
A:[------------------------------------]
E:[------------------------------------]

e:[-------------------------------------------------]
B:[--10-12-13--10-12-13--10-12-13-15-13-12-13-12-10-]
G:[-------------------------------------------------]
D:[-------------------------------------------------]  
A:[-------------------------------------------------]
E:[-------------------------------------------------]

Verse: Slow part-There's a darkening sky before me, Sounds cool finger picked. 
But you can also pickit with a pick.
e:[-------------------------------]
B:[-------------------------------]
G:[-------------------------------]
D:[-------------------------------]
A:[---7-7-7-7---3-3-3-3---5-5-5-5-]
E:[--5-5-5-5---1-1-1-1---3-3-3-3--]

No more lies part:Palm mute after everey fifth time you play the notes

e:[-----------------------------------------------------------------------------------------]
B:[-----------------------------------------------------------------------------------------]
G:[-----------------------------------------------------------------------------------------]
D:[--7-7-7-7-7--7-7-7-7-7--3-3-3-3-3--3-3-3-3-3--5-5-5-5-5--5-5-5-5-5--5-5-5-5-5--5-5-5-5-5-]
A:[--7-7-7-7-7--7-7-7-7-7--3-3-3-3-3--3-3-3-3-3--5-5-5-5-5--5-5-5-5-5--5-5-5-5-5--5-5-5-5-5-]
E:[--5-5-5-5-5--5-5-5-5-5--1-1-1-1-1--1-1-1-1-1--3-3-3-3-3--3-3-3-3-3--3-3-3-3-3--3-3-3-3-3-]

I'm trying 2 figgure out that damned solo, havent just gotten the hang of TABBING solos, i can play them i just cant tabb them =(

Well thats basically it, u just use the same things over and over and kick in the distortion when it's time
Any comment's or suggestion's are welcome and please if u have something 2 say about this tab plz e-mail me
at Jon_atli2003@hotmail.com

.
Comments