Iron Maiden - My Generation Chords & Tabs

 

My Generation Chords & Tabs

Iron Maiden Chords & Tabs

Version: 3 Type: Bass Tab 0 ratings
1 star 2 stars 3 stars 4 stars 5 stars
comments

My Generation Bass Tab

   
Iron Maiden  My Generation

This is the whole song except the outro (which I am working on) not just
the bass solo

INTRO

G||---------------------------------|
D||-7-7-7-7-5-5-5-5-7-7-7-7-5-5-5-5-|
A||---------------------------------|
E||---------------------------------|

VERSE

G||-------------------|
D||-7-7-7-7-5-5-5-5-7-|
A||-------------------|
E||-------------------|

CHORUS

G||-----5--------------5----5-7-9-9-7-----|
D||-5-7----7-5-7---5-7----7-----------9-7-|
A||---------------------------------------|
E||---------------------------------------|

SOLO

||----------------------|---------------------------|---------------------|--
||--7-7-7-/-10--12--14--|--14-14-14--12-\-10--7--5--|--7--7-7-7--7-7-7-7--|--
||----------------------|---------------------------|---------------------|--
||----------------------|---------------------------|---------------------|--

[ Tab from: http://www.guitartabs.cc/tabs/i/iron_maiden/my_generation_btab_ver_3.html ]
------------------|-------------------|--------------------|-----------------
-5--5-5-5--5-5-5--|---7---5-----------|--------------------|--7--7-7-7--7--7-
------------------|----------7---6----|--5-5-5---3--0------|-----------------
------------------|-------------------|-----------------3--|-----------------
					   	
------|-------------------|-----------------|-5-5---7-7---9-9--9-9---7-7----|
-7-7--|--5--5-5-5--5-5-5--|--7--5-----5--7--|-----------------------------5-|
------|-------------------|--------7--------|-------------------------------|
------|-------------------|-----------------|-------------------------------|


----------------------|-------------------|--------------------|-------------
--7--7-7-7--7--7-7-7--|--5--5-5-5--5-5-5--|---7--7-7-7---5--5--|-------------
----------------------|-------------------|--------------------|--5--5-5-5---
----------------------|-------------------|--------------------|-------------


--------|----------------------|-------------------|
--------|--7--7-7-7--7--7-7-7--|--5--5-5-5--5-5-5--|
--3--3--|----------------------|-------------------|
--------|----------------------|-------------------|
Comments