Iron Maiden - Monts Gur Chords & Tabs

 

Monts Gur Chords & Tabs

Iron Maiden Chords & Tabs

Version: 1 Type: Bass Tab 0 ratings
1 star 2 stars 3 stars 4 stars 5 stars
comments

Monts Gur Bass Tab

Monts├ęgur by Iron Maiden
From the album Dance of death

(0:00)
G---------
D---------
A---------
E-12/-----

(0:01)
G----------------------------------------------------------------------------------
D----------------------------------------------------------------------------------
A-------------0-2-------------5-3-2--------------0-2--5-5-3-3-2-5-2-0--------------
E-0-0-2-0-3-0-----0-0-2-0-3-0--------0-0-2-0-3-0----------------------3-0----------

(0:24)
G---------------------------------------------------
D---------------------------------------------------
A-------------------3-3-3---------------------------
E-0-0-0-2-2-2-3-3-3-------2-2-2-3-3-3-0-0-0~--------

(0:37)
G---------------------------------------------------
D---------------------------------------------------
A------------------3-3-3--3-3-3-5-5-5-7--7-7-5~-----
E-0-0-0-2-2-2-3-3-3---------------------------------

(0:49)
G---------------------------------------------------
D---------------------------------------------------
A-7---5---3---3---3---5-----------------------------
E------------------------0~-------------------------

(1:14)
G---------------------------------------------------
D---------------------------------------------------
A-7----------5--------------------------------------
E-----7--5------3--0~-------------------------------

(1:38)
G---------------------------------------------------
D---------------------------------------------------
A-------------------3-3-3---------------------------
E-0-0-0-2-2-2-3-3-3-------2-2-2-3-3-3-0-0-0~--------

(1:51)
G---------------------------------------------------
D---------------------------------------------------
A------------------3-3-3--3-3-3-5-5-5-7--7-7-5~-----
E-0-0-0-2-2-2-3-3-3---------------------------------

(2:03)
G---------------------------------------------------
D---------------------------------------------------
A-7---5---3---3---3---5-----------------------------
E------------------------0~-------------------------
[ Tab from: http://www.guitartabs.cc/tabs/i/iron_maiden/monts_gur_btab.html ]
(2:28)
G---------------------------------------------------
D---------------------------------------------------
A-7----------5--------------------------------------
E-----7--5------3--0~-------------------------------

(2:52)
G----------------------------------------------------------------------------------
D----------------------------------------------------------------------------------
A-------------0-2-------------5-3-2--------------0-2--5-5-3-3-2-5-2-0--------------
E-0-0-2-0-3-0-----0-0-2-0-3-0--------0-0-2-0-3-0----------------------3-0----------

(3:17)
G---------------------------------------------------
D---------------------------------------------------
A-------------------3-3-3---------------------------
E-0-0-0-2-2-2-3-3-3-------2-2-2-3-3-3-0-0-0~--------

(3:42)
G---------------------------------------------------
D---------------------------------------------------
A-7---5---3---3---3---5-----------------------------
E------------------------0~-------------------------

(4:06)
G---------------------------------------------------
D------------------------------------------------
A--7---3---7------5-----------------------------------
E-------------3---------------------------------

(4:30)
G---------------------------------------------------
D---------------------------------------------------
A-7----------5--------------------------------------
E-----7--5------3--0~-------------------------------

(5:31)
G--------------------------------------------------
D--------------------------------------------------
A------------------------------~------------------- (Just improvise...yada yada ya..)
E-0\12-12-12-12-12-12-12---------------------------

(5:44)
G---------------------------------------------------
D---------------------------------------------------
A---------------------------------------------------
E-0-------------------------------------------------

There you go! Have fun little children! any comments or anything just e-mail me on...
The_Jackass_boi@hotmail.com
Comments