Iron Maiden - Mercenary Chords & Tabs

 

Mercenary Chords & Tabs

Iron Maiden Chords & Tabs

Version: 2 Type: Bass Tab 0 ratings
1 star 2 stars 3 stars 4 stars 5 stars
comments

Mercenary Bass Tab

   
Iron Maiden
The Mercenary
Tabbed by Dan (argybahji@hotmail.com)


[Intro/Verse]
G|--------------------------------------------------------------------
D|--------------------------------------------------------------------
A|-7-7-7-7-7-7-7-7-7-7-7-7-7-7-7-7-7-7-7-7-7-7-7-7-7-7-7-7-7-7-7-7----
E|--------------------------------------------------------------------

[Pre-Chorus] ('Nowhere to run...')
G|--------------------------------------------------------------------
D|--------------------------------------------------------------------
A|-7-777-777-777-77-5-555-555-555-55-3-333-333-333-33-5-555-555-555-55
E|--------------------------------------------------------------------

[Chorus] ('Show them no fear...')
G|--------------------------------------------------------------------
D|--------------------------------------------------------------------
A|-3-333-333-333-33-5-555-555-555-55-7-777-777-777-777-777-777-777-777
E|--------------------------------------------------------------------
[ Tab from: http://www.guitartabs.cc/tabs/i/iron_maiden/mercenary_btab_ver_2.html ]
[Guitar Solo]							     --\
G|--------------------------------------------------------------------  \
D|--------------------------------------------------------------------   |
A|-2-2-2-2-2-2-2-2-2-2-2-2-2-2-2-2-0-0-0-0-0-0-0-0-0-0-0-0-0-0-0-0----   |
E|--------------------------------------------------------------------   |
   									 |- x2
G|--------------------------------------------------------------------   |
D|--------------------------------------------------------------------   |
A|-2-2-2-2-2-2-2-2-2-2-2-2-2-2-2-2-5-5-5-5-5-5-5-5-3-3-3-3-3-3-3-3----   |
E|--------------------------------------------------------------------  /
								     --/
			THEN 
								     --\
G|--------------------------------------------------------------------  \
D|--------------------------------------------------------------------  |
A|-7-7-7-7-7-7-7-7-7-7-7-7-10-10-10-10-5-5-5-5-5-5-5-5-5-5-5-5-5-5-5-5  |
E|--------------------------------------------------------------------  |
									|- 2x
G|--------------------------------------------------------------------  |
D|--------------------------------------------------------------------  |
A|-7-7-7-7-7-7-7-7-7-7-7-7-10-10-10-10-5-5-5-5-5-5-5-5-0-0-0-0-0-0-0-0  |
E|--------------------------------------------------------------------  /
								     --/
[Interlude]
G|--------------------------------------------------------------------
D|--------------------------------------------------------------------
A|-7-7-7-7-7-7-7-7-5-5-5-5-5-5-5-5-3-3-3-3-3-3-3-3-5-5-5-5-5-5-5-5----
E|--------------------------------------------------------------------


Structure
==================
Intro/Verse	x7	
Pre-Chorus	x2
Intro/Verse	x1
Chorus		x4
Verse 		x5
Pre Chorus	x2
Intro/Verse	x1
Chorus		x4
Guitar Solo     x1
Interlude	x2
Chorus		x4
Comments