Iron Maiden - Killers Chords & Tabs

 

Killers Chords & Tabs

Iron Maiden Chords & Tabs

Version: 2 Type: Tab 0 ratings
1 star 2 stars 3 stars 4 stars 5 stars
comments

Killers Tab

   
Iron Maiden
Killers
 Intro
  Q=170
  N.C.
 4/4
  Gtrs I, II
|-----|
|-----|
|-----|
|-----|
|-----|
|-----|


  Gtr I
|---------------------------------|--------------------------------------|
|---------------------------------|-()-------------------------------|
|-------------------------------------|--------------------------------------|
|-------------------------------------|--------------------------------------|
|-------------------------------------|--------------------------------------|
|-------------------------------------|--------------------------------------|
|
| Gtr II
|-------------------------------------|--------------------------------------|
|-------------------------------------|--------------------------------------|
|-------------------------------------|--------------------------------------|
|-------------------------------------|--------------------------------------|
|-5h7p5h7p5h7p5h7p5h7p5h7p==5h7p==5h7-|----5h==7p5h7p5h7p5h7p5h7p5h7p5h7p5h7-|
|-------------------------------------|--------------------------------------|


|----------------------------------------|
|-()-----------------------------|
|----------------------------------------|
|----------------------------------------|
|----------------------------------------|
|----------------------------------------|
|
|----------------------------------------|
|----------------------------------------|
|----------------------------------------|
|----------------------------------------|
|----5h==7p5h7p5h7p5h7p5h7p5h7p==5h7p5h7-|
|----------------------------------------|


|--------------------------------------|
|-()-------------------------------|
|--------------------------------------|
|--------------------------------------|
|--------------------------------------|
|--------------------------------------|
|
|--------------------------------------|
|--------------------------------------|
|--------------------------------------|
|--------------------------------------|
|----5h==7p5h7p5h7p5h7p5h7p5h7p5h7p5h7-|
|--------------------------------------|


    Em                                    D       C         Em
||--0--0-3-0-0-3-0-0-|-3--0-0-3-0-0-3-0-|-0-3-0-0-3-0-0-3-|-0-0-3-0-0-3-0-0--|
||o------------------|------------------|-----------------|------------------|
||-------------------|------------------|-----------------|------------------|
||-------------------|------------------|-----------------|------------------|
||o------------------|------------------|-----------------|------------------|
||-------------------|------------------|-----------------|------------------|
|
||-------------------|------------------|-----------------|------------------|
||o------------------|------------------|-----------------|------------------|
||--9\---------------|-9\---------------|-----------------|------------------|
||--9\---------------|-9\---------------|-----------------|------------------|
||o-7\---------------|-7\---------------|-----------------|------------------|
||-------------------|------------------|-----------------|------------------|


                                        D       C         Em
|-3--0-0-3-0-0-3-0-|-0--3-0-0-3-0-0-3-|-0-0-3-0-0-3-0-0-|-3-0-0-3-0-0-3-0--|
|------------------|------------------|-----------------|------------------|
|------------------|------------------|-----------------|------------------|
|------------------|------------------|-----------------|------------------|
|------------------|------------------|-----------------|------------------|
|------------------|------------------|-----------------|------------------|
|
|------------------|------------------|-----------------|---------------3/-|
|------------------|------------------|-----------------|---------------3/-|
|-9\---------------|-9\---------------|-----------------|------------------|
|-9\---------------|-9\---------------|-----------------|------------------|
|-7\---------------|-7\---------------|-----------------|------------------|
|------------------|------------------|-----------------|------------------|


  Am                 C                  G                  Am
|-5-0-0-5-0-0-5--0-|-8-0-0-8-0-0-8-0--|-8-7-5---8-7-5----|-5-0-0-5-0-0-5-0--|
|------------------|------------------|-------8-------8--|------------------|
|------------------|------------------|------------------|------------------|
|------------------|------------------|------------------|------------------|
|------------------|------------------|------------------|------------------|
|------------------|------------------|------------------|------------------|
|
|-5-----------5/-7-|-8-------------8\-|-3-------------3/-|-5-------------3/-|
|-5-----------5/-7-|-8-------------8\-|-3-------------3/-|-5-------------3/-|
|------------------|------------------|------------------|------------------|
|------------------|------------------|------------------|------------------|
|------------------|------------------|------------------|------------------|
|------------------|------------------|------------------|------------------|


                                        1.
                     C                  G                  Am
|-5-0-0-5-0-0-5--0-|-8-0-0-8-0-0-8-0--|-8-7-5---8-7-5----|-5-0-0-5-0-0-5-0--||
|------------------|------------------|-------8-------8--|-----------------o||
|------------------|------------------|------------------|------------------||
|------------------|------------------|------------------|------------------||
|------------------|------------------|------------------|-----------------o||
|------------------|------------------|------------------|------------------||
|
|-5-----------5/-7-|-8-------------8\-|-3-------------3/-|-5----------------||
|-5-----------5/-7-|-8-------------8\-|-3-------------3/-|-5---------------o||
|------------------|------------------|------------------|------------------||
|------------------|------------------|------------------|------------------||
|------------------|------------------|------------------|-----------------o||
|------------------|------------------|------------------|------------------||


  2.
  G                  Am
|-8-7-5---8-7-5----|-5-0-0-5-0-0-5-0-|
|-------8-------8--|-----------------|
|------------------|-----------------|
|------------------|-----------------|
|------------------|-----------------|
|------------------|-----------------|
|
|-3-------------3/-|-5---------------|
|-3-------------3/-|-5---------------|
|------------------|-----------------|
|------------------|-----------------|
|------------------|-----------------|
|------------------|-----------------|


  E5
    PM------------------|     PM------------------|
|-------------------------|-------------------------|
|-------------------------|-------------------------|
|-------------------------|-------------------------|
|-9-----------------------|-9-----------------------|
|-7-7-7-7-7-7-7-7-7-7-7-7-|-7-7-7-7-7-7-7-7-7-7-7-7-|
|-------------------------|-------------------------|
|
|   PM------------------|     PM------------------|
|-------------------------|-------------------------|
|-------------------------|-------------------------|
|-------------------------|-------------------------|
|-9-----------------------|-9-----------------------|
|-7-7-7-7-7-7-7-7-7-7-7-7-|-7-7-7-7-7-7-7-7-7-7-7-7-|
|-------------------------|-------------------------|


   N.C.
|----------------|------------------|
|----------------|------------------|
|--4p2---4p2---4p|=2---4p2-4p2-4-5--|
|------4-----4---|---4--------------|
|----------------|------------------|
|----------------|------------------|
|
|----------------|------------------|
|----------------|------------------|
|----------------|------------------|
|--5p4-0-5p4-0-5p|=4-0-5-4-5-0-5-7--|
|----------------|------------------|
|----------------|------------------|


  E5
    PM------------------|     PM------------------|
|-------------------------|-------------------------|
|-------------------------|-------------------------|
|-------------------------|-------------------------|
|-9-----------------------|-9-----------------------|
|-7-7-7-7-7-7-7-7-7-7-7-7-|-7-7-7-7-7-7-7-7-7-7-7-7-|
|-------------------------|-------------------------|
|
|   PM------------------|     PM------------------|
|-------------------------|-------------------------|
|-------------------------|-------------------------|
|-------------------------|-------------------------|
|-9-----------------------|-9-----------------------|
|-7-7-7-7-7-7-7-7-7-7-7-7-|-7-7-7-7-7-7-7-7-7-7-7-7-|
|-------------------------|-------------------------|


   N.C.
|----------------|------------------|
|----------------|------------------|
|--4p2---4p2---4p|=2---4p2-4p2-4-5--|
|------4-----4---|---4--------------|
|----------------|------------------|
|----------------|------------------|
|
|----------------|------------------|
|----------------|------------------|
|----------------|------------------|
|--5p4-0-5p4-0-5p|=4-0-5p4-5-0-5-7--|
|----------------|------------------|
|----------------|------------------|


   "You walk..."
    E5
      PM------------------|     PM------------------|
||--------------------------|-------------------------|
||o-------------------------|-------------------------|
||--------------------------|-------------------------|
||--9-----------------------|-9-----------------------|
||o-7-7-7-7-7-7-7-7-7-7-7-7-|-7-7-7-7-7-7-7-7-7-7-7-7-|
||--------------------------|-------------------------|
|
|     PM------------------|     PM------------------|
||--------------------------|-------------------------|
||o-------------------------|-------------------------|
||--------------------------|-------------------------|
||--9-----------------------|-9-----------------------|
||o-7-7-7-7-7-7-7-7-7-7-7-7-|-7-7-7-7-7-7-7-7-7-7-7-7-|
||--------------------------|-------------------------|


   N.C.
|----------------|------------------||
|----------------|-----------------o||
|--4p2---4p2---4p|=2---4p2-4p2-4-5--||
|------4-----4---|---4--------------||
|----------------|-----------------o||
|----------------|------------------||
|
|----------------|------------------||
|----------------|-----------------o||
|----------------|------------------||
|--5p4-0-5p4-0-5p|=4-0-5p4-5-0-5-7--||
|----------------|-----------------o||
|----------------|------------------||


 "Scream for mercy..."
  C5                  E5
    PM------------|           PM------------------|
|-----------------------|---------------------------|
|-----------------------|---------------------------|
|-----------------------|---------------------------|
|---------------------9-|-(9)-----------------------|
|-3-3-3-3-3-3-3-3-3-5-7-|-(7)-7-7-7-7-7-7-7-7-7-7-7-|
|-----------------------|---------------------------|
|
|       PM--------|               PM--------------|
|-----------------------|---------------------------|
|-----------------------|---------------------------|
|-----------------------|---------------------------|
|-5-------------------9-|-(9)-----------------------|
|-3-----3-3-3-3-3-3-5-7-|-(7)-----7-7-7-7-7-7-7-7-7-|
|-----------------------|---------------------------|


  C5                  G5
    PM------------|           PM------------------|
|-----------------------|----------------------------|
|-----------------------|----------------------------|
|---------------------7-|-(7)------------------------|
|---------------------5-|-(5)-5-5-5-5-5-5-5-5-5-5-5--|
|-3-3-3-3-3-3-3-3-3-5---|----------------------------|
|-----------------------|----------------------------|
|
|       PM--------|               PM--------------|
|-----------------------|----------------------------|
|-----------------------|----------------------------|
|---------------------7-|-(7)------------------------|
|-5-------------------5-|-(5)-----5-5-5-5-5-5-5-5-5--|
|-3-----3-3-3-3-3-3-5---|----------------------------|
|-----------------------|----------------------------|


  C5                  E5                              C5                  B5
    PM------------|           PM------------------|     PM------------|
|-----------------------|---------------------------|-----------------------|
|-----------------------|---------------------------|-----------------------|
|-----------------------|---------------------------|-----------------------|
|---------------------9-|-(9)-----------------------|---------------------4-|
|-3-3-3-3-3-3-3-3-3-5-7-|-(7)-7-7-7-7-7-7-7-7-7-7-7-|-3-3-3-3-3-3-3-3-3-3-2-|
|-----------------------|---------------------------|-----------------------|
|
|       PM--------|               PM--------------|         PM--------|
|-----------------------|---------------------------|-----------------------|
|-----------------------|---------------------------|-----------------------|
|-----------------------|---------------------------|-----------------------|
|-5-------------------9-|-(9)-----------------------|-5-------------------4-|
|-3-----3-3-3-3-3-3-5-7-|-(7)-----7-7-7-7-7-7-7-7-7-|-3-----3-3-3-3-3-3-3-2-|
|-----------------------|---------------------------|-----------------------|


                 B5                 C5                 D5
|------------------|------------------|------------------|-----------------|
|------------------|------------------|------------------|-----------------|
|------4-4-4-2-----|------4-4-4-2-----|------5-5-5-3-----|------7-7-7-5----|
|-(4)----------4---|--------------4---|--------------5p0-|-(0)----------7--|
|-(2)------------2-|-(2)------------3-|-(3)--------------|-----------------|
|------------------|------------------|------------------|-----------------|
|
|------------------|------------------|------------------|-----------------|
|------------------|------------------|------------------|-----------------|
|------------------|------------------|------------------|-----------------|
|-(4)------------4-|-(4)------------5-|-(5)------------7-|-(7)-------------|
|-(2)------------2-|-(2)------------3-|-(3)------------5-|-(5)-------------|
|------------------|------------------|------------------|-----------------|


  E5
    PM------------------|     PM------------------|
|-------------------------|-------------------------|
|-------------------------|-------------------------|
|-------------------------|-------------------------|
|-9-----------------------|-9-----------------------|
|-7-7-7-7-7-7-7-7-7-7-7-7-|-7-7-7-7-7-7-7-7-7-7-7-7-|
|-------------------------|-------------------------|
|
|   PM------------------|     PM------------------|
|-------------------------|-------------------------|
|-------------------------|-------------------------|
|-------------------------|-------------------------|
|-9-----------------------|-9-----------------------|
|-7-7-7-7-7-7-7-7-7-7-7-7-|-7-7-7-7-7-7-7-7-7-7-7-7-|
|-------------------------|-------------------------|


   N.C.
|----------------|------------------|
|----------------|------------------|
|--4p2---4p2---4p|=2---4p2-4p2-4-5--|
|------4-----4---|---4--------------|
|----------------|------------------|
|----------------|------------------|
|
|----------------|------------------|
|----------------|------------------|
|----------------|------------------|
|--5p4-0-5p4-0-5p|=4-0-5p4-5-0-5-7--|
|----------------|------------------|
|----------------|------------------|


  E5
    PM------------------|     PM------------------|
|-------------------------|-------------------------|
|-------------------------|-------------------------|
|-------------------------|-------------------------|
|-9-----------------------|-9-----------------------|
|-7-7-7-7-7-7-7-7-7-7-7-7-|-7-7-7-7-7-7-7-7-7-7-7-7-|
|-------------------------|-------------------------|
|
|   PM------------------|     PM------------------|
|-------------------------|-------------------------|
|-------------------------|-------------------------|
|-------------------------|-------------------------|
|-9-----------------------|-9-----------------------|
|-7-7-7-7-7-7-7-7-7-7-7-7-|-7-7-7-7-7-7-7-7-7-7-7-7-|
|-------------------------|-------------------------|


   N.C.
|----------------|------------------|
|----------------|------------------|
|--4p2---4p2---4p|=2---4p2-4p2-4-5--|
|------4-----4---|---4--------------|
|----------------|------------------|
|----------------|------------------|
|
|----------------|------------------|
|----------------|------------------|
|----------------|------------------|
|--5p4-0-5p4-0-5p|=4-0-5p4-5-0-5-7--|
|----------------|------------------|
|----------------|------------------|


   "My innocent..."
    E5
      PM------------------|     PM------------------|
||--------------------------|-------------------------|
||o-------------------------|-------------------------|
||--------------------------|-------------------------|
||--9-----------------------|-9-----------------------|
||o-7-7-7-7-7-7-7-7-7-7-7-7-|-7-7-7-7-7-7-7-7-7-7-7-7-|
||--------------------------|-------------------------|
|
|     PM------------------|     PM------------------|
||--------------------------|-------------------------|
||o-------------------------|-------------------------|
||--------------------------|-------------------------|
||--9-----------------------|-9-----------------------|
||o-7-7-7-7-7-7-7-7-7-7-7-7-|-7-7-7-7-7-7-7-7-7-7-7-7-|
||--------------------------|-------------------------|


   N.C.
|----------------|------------------||
|----------------|-----------------o||
|--4p2---4p2---4p|=2---4p2-4p2-4-5--||
|------4-----4---|---4--------------||
|----------------|-----------------o||
|----------------|------------------||
|
|----------------|------------------||
|----------------|-----------------o||
|----------------|------------------||
|--5p4-0-5p4-0-5p|=4-0-5p4-5-0-5-7--||
|----------------|-----------------o||
|----------------|------------------||


 "I have no one..."
  C5                  E5
    PM------------|           PM------------------|
|-----------------------|---------------------------|
|-----------------------|---------------------------|
|-----------------------|---------------------------|
|---------------------9-|-(9)-----------------------|
|-3-3-3-3-3-3-3-3-3-5-7-|-(7)-7-7-7-7-7-7-7-7-7-7-7-|
|-----------------------|---------------------------|
|
|       PM--------|               PM--------------|
|-----------------------|---------------------------|
|-----------------------|---------------------------|
|-----------------------|---------------------------|
|-5-------------------9-|-(9)-----------------------|
|-3-----3-3-3-3-3-3-5-7-|-(7)-----7-7-7-7-7-7-7-7-7-|
|-----------------------|---------------------------|


  C5                  G5
    PM------------|           PM------------------|
|-----------------------|----------------------------|
|-----------------------|----------------------------|
|---------------------7-|-(7)------------------------|
|---------------------5-|-(5)-5-5-5-5-5-5-5-5-5-5-5--|
|-3-3-3-3-3-3-3-3-3-5---|----------------------------|
|-----------------------|----------------------------|
|
|       PM--------|               PM--------------|
|-----------------------|----------------------------|
|-----------------------|----------------------------|
|---------------------7-|-(7)------------------------|
|-5-------------------5-|-(5)-----5-5-5-5-5-5-5-5-5--|
|-3-----3-3-3-3-3-3-5---|----------------------------|
|-----------------------|----------------------------|


  C5                  E5                              C5                  B5
    PM------------|           PM------------------|     PM------------|
|-----------------------|---------------------------|-----------------------|
|-----------------------|---------------------------|-----------------------|
|-----------------------|---------------------------|-----------------------|
|---------------------9-|-(9)-----------------------|---------------------4-|
|-3-3-3-3-3-3-3-3-3-5-7-|-(7)-7-7-7-7-7-7-7-7-7-7-7-|-3-3-3-3-3-3-3-3-3-3-2-|
|-----------------------|---------------------------|-----------------------|
|
|       PM--------|               PM--------------|         PM--------|
|-----------------------|---------------------------|-----------------------|
|-----------------------|---------------------------|-----------------------|
|-----------------------|---------------------------|-----------------------|
|-5-------------------9-|-(9)-----------------------|-5-------------------4-|
|-3-----3-3-3-3-3-3-5-7-|-(7)-----7-7-7-7-7-7-7-7-7-|-3-----3-3-3-3-3-3-3-2-|
|-----------------------|---------------------------|-----------------------|


                 B5                 C5                 D5
|------------------|------------------|------------------|-----------------|
|------------------|------------------|------------------|-----------------|
|------4-4-4-2-----|------4-4-4-2-----|------5-5-5-3-----|------7-7-7-5----|
|-(4)----------4---|--------------4---|--------------5p0-|-(0)----------7--|
|-(2)------------2-|-(2)------------3-|-(3)--------------|-----------------|
|------------------|------------------|------------------|-----------------|
|
|------------------|------------------|------------------|-----------------|
|------------------|------------------|------------------|-----------------|
|------------------|------------------|------------------|-----------------|
|-(4)------------4-|-(4)------------5-|-(5)------------7-|-(7)-------------|
|-(2)------------2-|-(2)------------3-|-(3)------------5-|-(5)-------------|
|------------------|------------------|------------------|-----------------|


   Interlude
    N.C.
              ~~
||----------------------|--------------------------------------|
||o-10b12----10----8--8-|--8--7--7--7--------------------------|
||----------------------|--------------9--9--9--7--9--9p=7-----|
||----------------------|-----------------------------------9--|
||o---------------------|--------------------------------------|
||----------------------|--------------------------------------|
|
|             ~~
||----------------------|--------------------------------------|
||o-13b15----13---12-12-|-12-10-10-10--------------------------|
||----------------------|-------------12-12-12-11-12-12p11-----|
||----------------------|----------------------------------12--|
||o---------------------|--------------------------------------|
||----------------------|--------------------------------------|


                                             D
            ~~                                ~~
|---------------------|-----------------------------||
|-10b12----10----8--8-|--8--7--7--7----------------o||
|---------------------|--------------9--9--9--7-----||
|---------------------|-----------------------------||
|---------------------|----------------------------o||
|---------------------|-----------------------------||
|
|           ~~                                ~~
|---------------------|-----------------------------||
|-13b15----13---12-12-|-12-10-10-10----------------o||
|---------------------|-------------12-12-12-11-----||
|---------------------|-----------------------------||
|---------------------|----------------------------o||
|---------------------|-----------------------------||


  G5  A5      E5       D5           E5
  Gtrs I, II
|-----------------|-----------------------|
|-----------------|-----------------------|
|-----------------|-----------------------|
|-------------9-9-|-9\-7-7-7-7-7-7\-9-9\--|
|-5---7-7-7---7-7-|-7\-5-5-5-5-5-5\-7-7\--|
|-3---5-5-5-------|-----------------------|


  G5  A5      E5       D5       E5
|-----------------|---------------------|
|-----------------|---------------------|
|-----------------|---------------------|
|-------------9-9-|-9\-7--7--7/-9-------|
|-5---7-7-7---7-7-|-7\-5--5--5/-7-5-5---|
|-3---5-5-5-------|---------------3-3---|


  G5  A5      E5       D5           E5      G5  A5
|-----------------|-----------------------|--------------|
|-----------------|-----------------------|--------------|
|-----------------|-----------------------|--------------|
|-------------9-9-|-9\-7-7-7-7-7-7\-9-9\--|--------------|
|-5---7-7-7---7-7-|-7\-5-5-5-5-5-5\-7-7\--|-5---7-7-7----|
|-3---5-5-5-------|-----------------------|-3---5-5-5----|


 " I can see..."
  F5                                          G5
    PM--------------------------------|               PM------------------|
|-------------------------|---------------------|---------------------------|
|-------------------------|---------------------|---------------------------|
|-------------------------|---------------------|---------------------------|
|-3-----------------------|-------------------5-|-(5)-----------------------|
|-3-----------------------|-------------------5-|-(5)-----------------------|
|-1-1-1-1-1-1-1-1-1-1-1-1-|-1-1-1-1-1-1-1-0-1-3-|-(3)-3-3-3-3-3-3-3-3-3-3-3-|


                    C5                                                D5
  PM--------|               PM--------------------------------|
|---------------------|---------------------------|----------------------|
|---------------------|---------------------------|----------------------|
|---------------------|---------------------------|----------------------|
|-------------------5-|-(5)-----------------------|-------------5-----7--|
|-----------------2-3-|-(3)-3-3-3-3-3-3-3-3-3-3-3-|-3-3-3-3-3-3-3-2-3-5--|
|-3-3-3-3-3-3-3-3-----|---------------------------|----------------------|


                                                F5
      PM------------------|     PM------|
|---------------------------|---------------------|
|---------------------------|---------------------|
|---------------------------|---------------------|
|-(7)-----------------------|-------------7-7---3-|
|-(5)-5-5-5-5-5-5-5-5-5-5-5-|-5-5-5-5-5-5-5-5---3-|
|---------------------------|-----------------0-1-|


                                                G5
      PM--------------------------------|               PM------------------|
|---------------------------|---------------------|---------------------------|
|---------------------------|---------------------|---------------------------|
|---------------------------|---------------------|---------------------------|
|-(3)-----------------------|-------------------5-|-(5)-----------------------|
|-(3)-----------------------|-------------------5-|-(5)-----------------------|
|-(1)-1-1-1-1-1-1-1-1-1-1-1-|-1-1-1-1-1-1-1-0-1-3-|-(3)-3-3-3-3-3-3-3-3-3-3-3-|


                    C5
  PM--------|               PM------------------|
|---------------------|---------------------------|
|---------------------|---------------------------|
|---------------------|---------------------------|
|-------------------5-|-(5)-----------------------|
|-----------------2-3-|-(3)-3-3-3-3-3-3-3-3-3-3-3-|
|-3-3-3-3-3-3-3-3-----|---------------------------|

[ Tab from: http://www.guitartabs.cc/tabs/i/iron_maiden/killers_tab_ver_2.html ]
                            D5
    PM------------------|
|-------------------------|---------------|--------|
|-------------------------|---------------|--------|
|-------------------------|---------------|--------|
|-------------------------|-7---7-(7)--7--|-(7)----|
|-3-3-3-3-3-3-3-3-3-3-3-3-|-5---5-(5)--5--|-(5)----|
|-------------------------|---------------|--------|


 Guitar Solo 1 (Murray)
  E5
  Gtr I
   TP                                     ~~~~
|-------------------------------------|--------------------------------------|
|-10b12r==========(10)-10---8-10b12---|-(10)-----------15b17-----17h20p17-20-|
|-------------------------------------|--------------------------------------|
|-------------------------------------|--------------------------------------|
|-------------------------------------|--------------------------------------|
|-------------------------------------|--------------------------------------|
|
| Gtr II
|       PM--------------------------|        PM---------------------------|
|-------------------------------------|--------------------------------------|
|-------------------------------------|--------------------------------------|
|-------------------------------------|--------------------------------------|
|--9----------------------------------|---9----------------------------------|
|--7----7-7-7-7-7---7---7-7-7--7----7-|---7--7-7-7-7-7--7----7-7--7-----7--7-|
|-------------------------------------|--------------------------------------|


  C5                           D5                          E5                      D5
                                                    ~~~~~~~~~~~~
|--------------------------------------------------------|------------------------------|
|-15h17-17-15p==12-15-12----12---------------------------|------------------------------|
|------------------------14----14b16r==14-12----12-14b16-|-(14)-------------------------|
|--------------------------------------------14----------|------------------------------|
|--------------------------------------------------------|------------------------------|
|--------------------------------------------------------|------------------------------|
|
|        PM-----------------|        PM------------|            PM------------|
|--------------------------------------------------------|------------------------------|
|--------------------------------------------------------|------------------------------|
|--------------------------------------------------------|------------------------------|
|--5----------------------------7------------------------|---9------------------9\-7----|
|--3-----3----3-----3-----3--3--5----5--5--5-----5--5----|---7--7-7-7-7-7-7-7-7-7\-5----|
|--------------------------------------------------------|------------------------------|


  E5
   ~~           ~~
|-----------------------------|-------------------------------------|
|-17-------x---17-------------|-----------------14h17p==14----------|
|------------x----------17-14-|-16-----16-16-16--------------14-----|
|-----------------------------|-------------------------------------|
|-----------------------------|-------------------------------------|
|-----------------------------|-------------------------------------|
|
|    PM--------------------|       PM-----------------------------|
|-----------------------------|-------------------------------------|
|-----------------------------|-------------------------------------|
|-----------------------------|-------------------------------------|
|--9--------------------------|--9----------------------------------|
|--7-7-7-7-7-7--7-7-7-7--7--7-|--7-7-7--7--7--7--7----7----7--7-7-7-|
|-----------------------------|-------------------------------------|


  C5                      D5
|----------------14-15p14-15p14-15p14-17p15-14h15-|
|-------14-15-17----------------------------------|
|-14-16-------------------------------------------|
|-------------------------------------------------|
|-------------------------------------------------|
|-------------------------------------------------|
|
|        PM------------|         PM------------|
|-------------------------------------------------|
|-------------------------------------------------|
|-------------------------------------------------|
|--5-----------------------7----------------------|
|--3-----3--3--3-----3--3--5-----5--5--5-----5--5-|
|-------------------------------------------------|


  E5                                       A5
|-14-------14----------------------0-0-0-|-12p0-0-0-14p0-0-0-15p0-17-15-14-12p0-0-|
|----17p15----17-15p14-------------------|----------------------------------------|
|----------------------16-(16)-----------|----------------------------------------|
|----------------------------------------|----------------------------------------|
|----------------------------------------|----------------------------------------|
|----------------------------------------|----------------------------------------|
|
|        PM----------------------------|        PM-------------------|
|----------------------------------------|----------------------------------------|
|----------------------------------------|----------------------------------------|
|----------------------------------------|----------------------------------------|
|--9-------------------------------------|----------------------------------------|
|--7-----7--7--7-----7--7---7--7-7-7-7-7-|--7----------------------------7----9---|
|----------------------------------------|--5---5-5--5---5-5--5----5--5--5----7---|


  C5
|-12p0-0-0-14p0-0-0-15p0-17-15-14-12p0-0---|
|------------------------------------------|
|------------------------------------------|
|------------------------------------------|
|------------------------------------------|
|------------------------------------------|
|
|      PM------------------------------|
|------------------------------------------|
|------------------------------------------|
|------------------------------------------|
|------------------------------------------|
|-10---------------------------------------|
|--8---8-8--8---8-8--8----8--8--8----8-8---|


  G5                B5
|-12p0-0-0-14p0-0-0-15p0-17-15-14-12p0-0-|
|----------------------------------------|
|----------------------------------------|
|----------------------------------------|
|----------------------------------------|
|----------------------------------------|
|
|      PM---------|       PM-----------|
|----------------------------------------|
|----------------------------------------|
|----------------------------------------|
|--------------------4-------------------|
|--5-----------------2----2--2--2----2-2-|
|--3---3-3--3---3-3----------------------|


  A5
|-12p0-0-0-14p0-0-0-15p0-17-15-14-12p0-0-|-12p0-0-0-14p0-0-0-15p0-17-15-14-12p0-0-|
|----------------------------------------|----------------------------------------|
|----------------------------------------|----------------------------------------|
|----------------------------------------|----------------------------------------|
|----------------------------------------|----------------------------------------|
|----------------------------------------|----------------------------------------|
|
|      PM-------------------|                   PM-------------------|
|----------------------------------------|----------------------------------------|
|----------------------------------------|----------------------------------------|
|----------------------------------------|----------------------------------------|
|----------------------------------------|----------------------------------------|
|--7----------------------------7----5---|--7----------------------------7----9---|
|--5---5-5--5---5-5--5----5--5--5----3---|--5---5-5--5---5-5--5----5--5--5----7---|


  C5
|-12p0-0-0-14p0-0-0-15p0-17-14-15p14-17p14-|
|------------------------------------------|
|------------------------------------------|
|------------------------------------------|
|------------------------------------------|
|------------------------------------------|
|
|      PM-------------------------------|
|------------------------------------------|
|------------------------------------------|
|------------------------------------------|
|--5---------------------------------------|
|--3---3-3--3---3-3--3----3--3--3-----3--3-|
|------------------------------------------|


  G5            B5                 A5
   TP       TP                      ~~~~~        ~~~~~~~~~~
|-14-------17p========14-17b19---|-17b19--17b19-17b19-(17)------|
|--------------------------------|------------------------------|
|--------------------------------|------------------------------|
|--------------------------------|------------------------------|
|--------------------------------|------------------------------|
|--------------------------------|------------------------------|
|
|    PM-------|   PM-----------|
|--------------------------------|------------------------------|
|--------------------------------|------------------------------|
|--------------------------------|------------------------------|
|---------------4----------------|------------------------------|
|--5------------2-2-2--2--2----2-|--7------------------------5--|
|--3-3-3-3--3-3------------------|--5------------------------3--|


 Guitar Solo 2 ( Smith )
  G5      A5              E5             D5                 E5
  Gtr I
|---------------------------------|----------------------------------|
|---------------------------------|----------------------------------|
|---------------------------------|----------------------------------|
|--------------------------9----9-|---9\--7--7--7----7-7-7\-9--9\----|
|--5--------7--7--7--------7----7-|---7\--5--5--5----5-5-5\-7--7\----|
|--3--------5--5--5---------------|----------------------------------|
|
| Gtr II
|                                               ~~~~~
|---------------------------------|----------------------------------|
|-13b15r==(13)--------------------|----------------------------------|
|-14b16r==(14)---12----12-14b16---|-(14)-14p12-14b16----------14--16-|
|-------------------14------------|----------------------------------|
|---------------------------------|----------------------------------|
|---------------------------------|----------------------------------|


  G5          A5               E5          D5            E5
|------------------------------------|-------------------------|
|------------------------------------|-------------------------|
|------------------------------------|-------------------------|
|-------------------------------9--9-|--9\--7-----7----7-9-----|
|--5-----------7-7--7-----------7--7-|--7\--5-----5----5-7-5-5-|
|--3-----------5-5--5----------------|---------------------3-3-|
|
|------------------------------------|--------15/---19---------|
|-17----------17------------17-------|-----17------------------|
|-16-19p16-16-16---19p16-16-16-19p16-|-16--16------------------|
|------------------------------------|-------------------------|
|------------------------------------|-------------------------|
|------------------------------------|-------------------------|


  G5        A5                    E5
|---------------------------------------|
|---------------------------------------|
|---------------------------------------|
|----------------------------------9--9-|
|-5---------7----7--7--------------7--7-|
|-3---------5----5--5-------------------|
|
|---------------------------------------|
|---------------------------------------|
|-------9-------------11-------------12-|
|-7b9-9---9-9b11---11----11-10b12-12----|
|---------------------------------------|
|---------------------------------------|


     D5                    E5       G5
|---------------------------------|----------------------|
|---------------------------------|----------------------|
|---------------------------------|----------------------|
|--9\-7-7--7-----7-7--7\---9-9\---|----------------------|
|--7\-5-5--5-----5-5--5\---7-7\---|--5------7-7--7-------|
|---------------------------------|--3------5-5--5-------|
|
|                                                   ~~
|---------------------------------|----------------------|
|---------------------------------|-14b15-------14-------|
|---------------------------------|----------------------|
|-12h14---14-14-14---12b14--------|----------------14----|
|-------------------------------7-|----------------------|
|---------------------------------|----------------------|


  B5
     PM--------------------------------------|
|----------------------------------------------|
|----------------------------------------------|
|----------------------------------------------|
|-4--------------------------------------------|
|-2--2----2-2---2--2--2----2----2--2----2----2-|
|----------------------------------------------|
|
|----------------------------------------------|
|----------------------------------------------|
|---15b16-----(15)---16------14----------------|
|-----------------------16--------14-14---15p==|
|----------------------------------------------|
|----------------------------------------------|


                                     N.C.
        PM-----------------------|
|--------------------------------------|
|--------------------------------------|
|--------------------------------------|
|--4-------------------------------4-2-|
|--2----2----2--2-----2-2---2--2-2-2---|
|--------------------------------------|
|
|                     ~~~~~~~~~
|--------------------------------------|
|--------------------------------------|
|--------------------------------------|
|-14p12--------14b16-12---(12)---------|
|---------14---------------------------|
|------------------------------------8-|


|------------------------|--------------------|
|-----------------3--5-3-|---3-7b8--7b8--7b8--|
|----------2--4-5--------|-5------------------|
|-(2)--4-5---------------|--------------------|
|------------------------|--------------------|
|------------------------|--------------------|
|
|------------------------|--------------------|
|------------------------|--------------------|
|------------------------|-----7b9--7b9--7b9--|
|---------------7-9-10-9-|-7-9----------------|
|--------7-9-10----------|--------------------|
|-(8)-10-----------------|--------------------|


   "My faith in believing..."
    E5
      PM------------------|     PM------------------|
||--------------------------|-------------------------|
||o-------------------------|-------------------------|
||--------------------------|-------------------------|
||--9-----------------------|-9-----------------------|
||o-7-7-7-7-7-7-7-7-7-7-7-7-|-7-7-7-7-7-7-7-7-7-7-7-7-|
||--------------------------|-------------------------|
|
|     PM------------------|     PM------------------|
||--------------------------|-------------------------|
||o-------------------------|-------------------------|
||--------------------------|-------------------------|
||--9-----------------------|-9-----------------------|
||o-7-7-7-7-7-7-7-7-7-7-7-7-|-7-7-7-7-7-7-7-7-7-7-7-7-|
||--------------------------|-------------------------|


   N.C.
                                    4x
|----------------|------------------||
|----------------|-----------------o||
|--4p2---4p2---4p|=2---4p2-4p2-4-5--||
|------4-----4---|---4--------------||
|----------------|-----------------o||
|----------------|------------------||
|
|                                   4x
|----------------|------------------||
|----------------|-----------------o||
|----------------|------------------||
|--5p4-0-5p4-0-5p|=4-0-5-4-5-0-5-7--||
|----------------|-----------------o||
|----------------|------------------||


 " I have found you..."
  C5                  E5
    PM------------|           PM------------------|
|-----------------------|---------------------------|
|-----------------------|---------------------------|
|-----------------------|---------------------------|
|---------------------9-|-(9)-----------------------|
|-3-3-3-3-3-3-3-3-3-5-7-|-(7)-7-7-7-7-7-7-7-7-7-7-7-|
|-----------------------|---------------------------|
|
|       PM--------|               PM--------------|
|-----------------------|---------------------------|
|-----------------------|---------------------------|
|-----------------------|---------------------------|
|-5-------------------9-|-(9)-----------------------|
|-3-----3-3-3-3-3-3-5-7-|-(7)-----7-7-7-7-7-7-7-7-7-|
|-----------------------|---------------------------|


  C5                  G5
    PM------------|           PM------------------|
|-----------------------|----------------------------|
|-----------------------|----------------------------|
|---------------------7-|-(7)------------------------|
|---------------------5-|-(5)-5-5-5-5-5-5-5-5-5-5-5--|
|-3-3-3-3-3-3-3-3-3-5---|----------------------------|
|-----------------------|----------------------------|
|
|       PM--------|               PM--------------|
|-----------------------|----------------------------|
|-----------------------|----------------------------|
|---------------------7-|-(7)------------------------|
|-5-------------------5-|-(5)-----5-5-5-5-5-5-5-5-5--|
|-3-----3-3-3-3-3-3-5---|----------------------------|
|-----------------------|----------------------------|


  C5                  E5                              C5                  B5
    PM------------|           PM------------------|     PM------------|
|-----------------------|---------------------------|-----------------------|
|-----------------------|---------------------------|-----------------------|
|-----------------------|---------------------------|-----------------------|
|---------------------9-|-(9)-----------------------|---------------------4-|
|-3-3-3-3-3-3-3-3-3-5-7-|-(7)-7-7-7-7-7-7-7-7-7-7-7-|-3-3-3-3-3-3-3-3-3-3-2-|
|-----------------------|---------------------------|-----------------------|
|
|       PM--------|               PM--------------|         PM--------|
|-----------------------|---------------------------|-----------------------|
|-----------------------|---------------------------|-----------------------|
|-----------------------|---------------------------|-----------------------|
|-5-------------------9-|-(9)-----------------------|-5-------------------4-|
|-3-----3-3-3-3-3-3-5-7-|-(7)-----7-7-7-7-7-7-7-7-7-|-3-----3-3-3-3-3-3-3-2-|
|-----------------------|---------------------------|-----------------------|


                 B5                 C5                 D5
|------------------|------------------|------------------|-----------------|
|------------------|------------------|------------------|-----------------|
|------4-4-4-2-----|------4-4-4-2-----|------5-5-5-3-----|------7-7-7-5----|
|-(4)----------4---|--------------4---|--------------5p0-|-(0)----------7--|
|-(2)------------2-|-(2)------------3-|-(3)--------------|-----------------|
|------------------|------------------|------------------|-----------------|
|
|------------------|------------------|------------------|-----------------|
|------------------|------------------|------------------|-----------------|
|------------------|------------------|------------------|-----------------|
|-(4)------------4-|-(4)------------5-|-(5)------------7-|-(7)-------------|
|-(2)------------2-|-(2)------------3-|-(3)------------5-|-(5)-------------|
|------------------|------------------|------------------|-----------------|


    E5
      PM------------------|     PM------------------|
||--------------------------|-------------------------|
||o-------------------------|-------------------------|
||--------------------------|-------------------------|
||--9-----------------------|-9-----------------------|
||o-7-7-7-7-7-7-7-7-7-7-7-7-|-7-7-7-7-7-7-7-7-7-7-7-7-|
||--------------------------|-------------------------|
|
|     PM------------------|     PM------------------|
||--------------------------|-------------------------|
||o-------------------------|-------------------------|
||--------------------------|-------------------------|
||--9-----------------------|-9-----------------------|
||o-7-7-7-7-7-7-7-7-7-7-7-7-|-7-7-7-7-7-7-7-7-7-7-7-7-|
||--------------------------|-------------------------|


  N.C.
|----------------|------------------||
|----------------|-----------------o||
|--4p2---4p2---4p|=2---4p2-4p2-4-5--||
|------4-----4---|---4--------------||
|----------------|-----------------o||
|----------------|------------------||
|
|----------------|------------------||
|----------------|-----------------o||
|----------------|------------------||
|--5p4-0-5p4-0-5p|=4-0-5-4-5-0-5-7--||
|----------------|-----------------o||
|----------------|------------------||


   "You walk..."
    E5
      PM------------------|     PM------------------|
||--------------------------|-------------------------|
||o-------------------------|-------------------------|
||--------------------------|-------------------------|
||--9-----------------------|-9-----------------------|
||o-7-7-7-7-7-7-7-7-7-7-7-7-|-7-7-7-7-7-7-7-7-7-7-7-7-|
||--------------------------|-------------------------|
|
|     PM------------------|     PM------------------|
||--------------------------|-------------------------|
||o-------------------------|-------------------------|
||--------------------------|-------------------------|
||--9-----------------------|-9-----------------------|
||o-7-7-7-7-7-7-7-7-7-7-7-7-|-7-7-7-7-7-7-7-7-7-7-7-7-|
||--------------------------|-------------------------|


   N.C.
|----------------|------------------||
|----------------|-----------------o||
|--4p2---4p2---4p|=2---4p2-4p2-4-5--||
|------4-----4---|---4--------------||
|----------------|-----------------o||
|----------------|------------------||
|
|----------------|------------------||
|----------------|-----------------o||
|----------------|------------------||
|--5p4-0-5p4-0-5p|=4-0-5p4-5-0-5-7--||
|----------------|-----------------o||
|----------------|------------------||


 "Scream for mercy..."
  C5                  E5
    PM------------|           PM------------------|
|-----------------------|---------------------------|
|-----------------------|---------------------------|
|-----------------------|---------------------------|
|---------------------9-|-(9)-----------------------|
|-3-3-3-3-3-3-3-3-3-5-7-|-(7)-7-7-7-7-7-7-7-7-7-7-7-|
|-----------------------|---------------------------|
|
|       PM--------|               PM--------------|
|-----------------------|---------------------------|
|-----------------------|---------------------------|
|-----------------------|---------------------------|
|-5-------------------9-|-(9)-----------------------|
|-3-----3-3-3-3-3-3-5-7-|-(7)-----7-7-7-7-7-7-7-7-7-|
|-----------------------|---------------------------|


  C5                  G5
    PM------------|           PM------------------|
|-----------------------|----------------------------|
|-----------------------|----------------------------|
|---------------------7-|-(7)------------------------|
|---------------------5-|-(5)-5-5-5-5-5-5-5-5-5-5-5--|
|-3-3-3-3-3-3-3-3-3-5---|----------------------------|
|-----------------------|----------------------------|
|
|       PM--------|               PM--------------|
|-----------------------|----------------------------|
|-----------------------|----------------------------|
|---------------------7-|-(7)------------------------|
|-5-------------------5-|-(5)-----5-5-5-5-5-5-5-5-5--|
|-3-----3-3-3-3-3-3-5---|----------------------------|
|-----------------------|----------------------------|


  C5                  E5                              C5                  B5
    PM------------|           PM------------------|     PM------------|
|-----------------------|---------------------------|-----------------------|
|-----------------------|---------------------------|-----------------------|
|-----------------------|---------------------------|-----------------------|
|---------------------9-|-(9)-----------------------|---------------------4-|
|-3-3-3-3-3-3-3-3-3-5-7-|-(7)-7-7-7-7-7-7-7-7-7-7-7-|-3-3-3-3-3-3-3-3-3-3-2-|
|-----------------------|---------------------------|-----------------------|
|
|       PM--------|               PM--------------|         PM--------|
|-----------------------|---------------------------|-----------------------|
|-----------------------|---------------------------|-----------------------|
|-----------------------|---------------------------|-----------------------|
|-5-------------------9-|-(9)-----------------------|-5-------------------4-|
|-3-----3-3-3-3-3-3-5-7-|-(7)-----7-7-7-7-7-7-7-7-7-|-3-----3-3-3-3-3-3-3-2-|
|-----------------------|---------------------------|-----------------------|


                 B5                 C5                 D5
|------------------|------------------|------------------|-----------------|
|------------------|------------------|------------------|-----------------|
|------4-4-4-2-----|------4-4-4-2-----|------5-5-5-3-----|------7-7-7-5----|
|-(4)----------4---|--------------4---|--------------5p0-|-(0)----------7--|
|-(2)------------2-|-(2)------------3-|-(3)--------------|-----------------|
|------------------|------------------|------------------|-----------------|
|
|------------------|------------------|------------------|-----------------|
|------------------|------------------|------------------|-----------------|
|------------------|------------------|------------------|-----------------|
|-(4)------------4-|-(4)------------5-|-(5)------------7-|-(7)-------------|
|-(2)------------2-|-(2)------------3-|-(3)------------5-|-(5)-------------|
|------------------|------------------|------------------|-----------------|


  E5
    PM------------------|     PM------------------|
|-------------------------|-------------------------|
|-------------------------|-------------------------|
|-------------------------|-------------------------|
|-9-----------------------|-9-----------------------|
|-7-7-7-7-7-7-7-7-7-7-7-7-|-7-7-7-7-7-7-7-7-7-7-7-7-|
|-------------------------|-------------------------|
|
|   PM------------------|     PM------------------|
|-------------------------|-------------------------|
|-------------------------|-------------------------|
|-------------------------|-------------------------|
|-9-----------------------|-9-----------------------|
|-7-7-7-7-7-7-7-7-7-7-7-7-|-7-7-7-7-7-7-7-7-7-7-7-7-|
|-------------------------|-------------------------|


   N.C.                                                E5
                                                ~
|-----------------------|-----------10-8-7----|--------------*|
|--12-10----12-10----12-|-10----10---------10-|-8------------*|
|--------11-------11----|----11---------------|--------9-9---*|
|-----------------------|---------------------|--------9-9---*|
|-----------------------|---------------------|--------7-7---*|
|-----------------------|---------------------|--------------*|
|
|                                               ~
|-----------------------|------------7-5------|--------------*|
|---8--7-----8--7-----8-|--7-----7-------8--7-|-5------------*|
|---------7--------7----|-----7---------------|--------9-9---*|
|-----------------------|---------------------|--------9-9---*|
|-----------------------|---------------------|--------7-7---*|
|-----------------------|---------------------|--------------*|



Comments