Iron Maiden - Judgement Of Heaven Chords & Tabs

 

Judgement Of Heaven Chords & Tabs

Iron Maiden Chords & Tabs

Version: 1 Type: Tab 0 ratings
1 star 2 stars 3 stars 4 stars 5 stars
comments

Judgement Of Heaven Tab

                       "  Judgement Of Heaven  "
                         Iron Maiden - Xfactor
                          Tabed by Amir .H.

             
  This Is a bass line but try it on your guitar , its close enough.
-]---------------------------------------------------------------
-]---------------------------------------------------------------
-]---------------------------------------------------------------
-]-2-xx-2-xx-2-xx-0-2-xx-2-xx-2--4-xx-4-xx-4--1-xx-2-xx-1--------
-]---------------------------------------------------------------
-]---------------------------------------------------------------
 

  Listen for timing @!
-]-----------------------------------------------|---------------
-]-----------------------------------------------|---------------
-]-9--9--9--9--9---11--11--11--11--11----8--8--8-|-9--9--9--8--8-
-]-----------------------------------------------|---------------
-]-7--7--7--7--7---9---9---9---9---9-----6--6--6-|-7--7--7--6--6-
-]-----------------------------------------------|---------------


-]---------------------------------------------------------------
-]---------------------------------------------------------------
-]-7--7--7--7--7---6--6--6--6---9--9--9---8--8--8--8-------------
-]---------------------------------------------------------------
-]-5--5--5--5--5---4--4--4--4---7--7--7---6--6--6--6-------------
-]---------------------------------------------------------------
  But thats the easy  way ......


-]---------------------------------------------------------------
-]---------------------------------------------------------------
-]-7--7--7--7--7-----7-6-4-4-4-4-4-------------------------------
-]---------------------------------------------------------------
-]-5--5--5--5--5-----5-4-2-2-2-2-2-------------------------------
-]---------------------------------------------------------------



-]---------------------------------------------------------------
-]---------------------------------------------------------------
-]-9---9---9--7---7---7--5--5--5--5--5--5------------------------
-]-9---9---9--7---7---7--5--5--5--5--5--5------------------------
-]-7-x-7-x-7--5-x-5-x-5--3xx3xx3xx3xx3xx3------------------------
-]---------------------------------------------------------------
  Your searching in the dark ......
  
 

  From Now On You Have to Have Rythem!!!!!!!!!!!!!
  Listen to the Song it self to get the correct Rythem .

-]-----------------------------------------------------------------------
-]-----------------------------------------------------------------------
-]-3--3--3------5--5--5------7--7--7------5--5--5------7--7--7--7------5-
-]-3--3--3------5--5--5------7--7--7------5--5--5------7--7--7--7------5-
-]-1xx1xx1xx----3xx3xx3xx----5xx5xx5xx----3xx3xx3xx----5xx5xx5xx5....--3-
-]-----------------------------------------------------------------------
  Tell me of my   Fate     Tell me of my    Place     Tell me if I... Peace 


-]-----------------------------------------------------------------------
-]-----------------------------------------------------------------------
-]-9---9---9---9----------9---7--5---5---5---5----------7---7---7---777--
-]-9---9---9---9----------9---7--5---5---5---5----------7---7---7---777--
-]-7-x-7-x-7-x-7----------7---5--3-x-3-x-3-x-3----------5-x-5-x-5-x-555--
-]-----------------------------------------------------------------------
 If you could live...   Again   Whould you change ...   Or leave it all ...
 
[ Tab from: http://www.guitartabs.cc/tabs/i/iron_maiden/judgement_of_heaven_tab.html ]
-]-----------------------------------------------------------------------
-]-----------------------------------------------------------------------
-]-9---9---9---9------9---7--5---5------12-12--777-----------------------
-]-9---9---9---9------9---7--5---5---5--12-12--777-----------------------
-]-7-x-7-x-7-x-7------7---5--3-x-3-x-5--10x10--555-----------------------
-]-----------------------------------3-----------------------------------
 If you had the ... Again    Whould you a thing at All ???????????????
 

-]-----------------------------------------------------------------------
-]-----------------------------------------------------------------------
-]-9---9---9---9----------9---7--5---5---5---5----------7---7---7---777--
-]-9---9---9---9----------9---7--5---5---5---5----------7---7---7---777--
-]-7-x-7-x-7-x-7----------7---5--3-x-3-x-3-x-3----------5-x-5-x-5-x-555--
-]-----------------------------------------------------------------------
  When you look back .........................
 

-]-----------------------------------------------------------------------
-]-----------------------------------------------------------------------
-]-9---9---9---9------9---7--5---5------12-12--777-----------------------
-]-9---9---9---9------9---7--5---5---5--12-12--777-----------------------
-]-7-x-7-x-7-x-7------7---5--3-x-3-x-5--10x10--555-----------------------
-]-----------------------------------3-----------------------------------
 


-]-------------------------------------------|---------------------------
-]-------------------------------------------|---------------------------
-]-9--9--9----7--7--7----5--5--5----7--7--7--|--7--7--7--9--9--9--7--7---
-]-9--9--9----7--7--7----5--5--5----7--7--7--|--7--7--7--9--9--9--7--7---
-]-7xx7xx7xx--5xx5xx5xx--3xx3xx3xx--5xx5xx5--|--5xx5xx5--7xx7xx7--5xx5---
-]-------------------------------------------|---------------------------
  All of my    Life      I have     Belived  |  Waiting for me , Waiting for me 
  Judgement    Of Heaven ..................  |

 
-]-----------------------------------------------------------------------
-]-----------------------------------------------------------------------
-]-9--12--7--9--5--7----9--12--7--9--12--14------------------------------
-]-9--12--7--9--5--7----9--12--7--9--12--14------------------------------
-]-7xx10xx5xx7xx3xx5----7xx10xx5xx7xx10--12------------------------------
-]-----------------------------------------------------------------------
  Yeah , Yeah 


-]-----------------------------------------------------
-]-----------------------------------------------------
-]-12-14-15--12-14-15--12-14-15--12-14-15--12-14-------
-]-----------------------------------------------------
-]-----------------------------------------------------
-]-----------------------------------------------------


-]-----------------------------------------------------
-]-----------------------------------------------------
-]-12-14-15--12-14-15--12-14-15--12-14---17-15-14-12---
-]-----------------------------------------------------
-]-----------------------------------------------------
-]-----------------------------------------------------


-]-----------------------------------------------------
-]-----------------------------------------------------
-]-12-14-15--12-14-15--12-14-15--12-14-15---14-14------
-]-----------------------------------------------------
-]-----------------------------------------------------
-]-----------------------------------------------------


-]-----------------------------------------------------
-]-----------------------------------------------------
-]-12--14--15--12--14--15--19-20-17---15-14-12---------
-]-----------------------------------------------------
-]-----------------------------------------------------
-]-----------------------------------------------------
  All of my , now I have believed ....


-]-----------------------------------------------------
-]-----------------------------------------------------
-]-12--14--15--11--12--14--14-15-12--------------------
-]-----------------------------------------------------
-]-----------------------------------------------------
-]-----------------------------------------------------
  Judgement of heaven .....

  Now the next part is easy , I just want to send this already 
  so try it alone , sorry !!!

  " O God of earth an Altar , Bow down and hear our cry "

Done by Amir Hershcoviz 
28-03-97 Israel
Enjoy , And up the Irons .
Comments