Iron Maiden - Ghost Of The Navigator Chords & Tabs

 

Ghost Of The Navigator Chords & Tabs

Iron Maiden Chords & Tabs

Version: 6 Type: Tab

Ghost Of The Navigator Tab

   
guitar 1 [clean]
  Dm          C    Dm         C
e:-5----------3----5----------3---|
B:-6----------5----6----------5---|
G:-7----------5----7----------5---|
D:-7----------5----7----------5---|
A:-5----------3----5----------3---|
E:--------------------------------|
guitar 2 [distorted]
e:--5--------------5--------------|
B:---8-6--5-6--------8-6--5-6-5---|
G:------------5-------------------|
D:--------------------------------|
A:--------------------------------|
E:--------------------------------|

   A#        A#         C Dm               C
e:-1---------1----------3-5----------------3-|
B:-3---------3----------5-6----------------5-|
G:-3---------3----------5-7----------------5-|
D:-3---------3----------5-7----------------5-|
A:-1---------1----------3-5----------------3-|
E:-------------------------------------------|

e:---------------------------5---------------|
B:--8-6-5-------8-6-5-----------8-6-5-6------|
G:-------7-5-3--------7-5-7----------------5-|
D:-------------------------------------------|
A:-------------------------------------------|
E:-------------------------------------------|

   Dm         A#           C           Dm
e:-5----------1------------3-----------5----------------|
B:-6----------3------------5-----------6----------------|
G:-7----------3------------5-----------7----------------|
D:-7----------3------------5-----------7----------------|
A:-5----------1------------3-----------5----------------|
E:------------------------------------------------------|

e:------------------------------------------------------|
B:--8-6-5--------8-6-5-------8-7-5-------5-7-8-7-5------|
G:--------7-5-3--------7-5-5-------7-5-7----------------|
D:------------------------------------------------------|
A:------------------------------------------------------|
E:------------------------------------------------------|

   Dm           A#           C           Dm
e:-5------------1------------3-----------5--------------|
B:-6------------3------------5-----------6--------------|
G:-7------------3------------5-----------7--------------|
D:-7------------3------------5-----------7--------------|
A:-5------------1------------3-----------5--------------|
E:------------------------------------------------------|

e:-------------------------------------------------------|
B:----8-6-5--------8-6-5-------8-6-5-------5-6-8-6-5-----|
G:--7-------7-5-3--------7-5-5-------7-5-7---------------|
D:-------------------------------------------------------|
A:-------------------------------------------------------|
E:-------------------------------------------------------|


distorted
e:-------------------------------|
B:-------------------------------|
G:-2-----3-----5-----5---7-5-----|
D:-0-----0-----0-----0---0-0-----|
A:-------------------------------|
E:-------------------------------| 2x

Part 1
e:------------------------------------------------------------------------------------|
B:-3----------------------------------------------------------------------------------|
G:-2---------------------------3---------------------------5--------------------------|
D:-0--0-0-0-0-0-0-0-0-0-0-0-0--0--0-0-0-0-0-0-0-0-0-0-0-0--0--0-0-0-0-0-0-0-0-0-0-0-0-|

A:------------------------------------------------------------------------------------|
E:------------------------------------------------------------------------------------|

e:-----------|
B:-----------|
G:-5---7-5---|
D:-5---7-5---|
A:-3---5-3---|      (2x)
E:-----------|

Part 1 with the follow verses:

"I have sailed to many lands...
On the bow I stand,...
Through the night I plough...
As the compass swings..."

Part 2:

e:-----------------------------------------------------------------------|
B:-----------------------------------------------------------------------|
G:-2-----2-----2-----5-----5-----5-----4-----4-----4-----7-7-7-5-5-5-4---|
D:-2-----2-----2-----5-----5-----5-----4-----4-----4-----7-7-7-5-5-5-4---|
A:-0-0-0-0-0-0-0-0---3-3-3-3-3-3-3-3---2-2-2-2-2-2-2-2---5-5-5-3-3-3-2---|
E:-----------------------------------------------------------------------|
  "...astray                                             mysteries of
[ Tab from: http://www.guitartabs.cc/tabs/i/iron_maiden/ghost_of_the_navigator_tab_ver_6.html ]
e:-----------------------------------------------------------------------|
B:-----------------------------------------------------------------------|
G:-2-----2-----2-----5-----5-----5-----4-----4-----4-----7-7-7-5-5-5-4---|
D:-2-----2-----2-----5-----5-----5-----4-----4-----4-----7-7-7-5-5-5-4---|
A:-0-0-0-0-0-0-0-0---3-3-3-3-3-3-3-3---2-2-2-2-2-2-2-2---5-5-5-3-3-3-2---|
E:-----------------------------------------------------------------------|
 ...time                                                 clouds that hide the...

Chorus:

e:--------------------------------------------------|
B:--------------------------------------------------|
G:-9-9-9-9---12-12-12-12---5-5-5-5---2-2-2-2--------|
D:-9-9-9-9---12-12-12-12---5-5-5-5---2-2-2-2--------|
A:-7-7-7-7---10-10-10-10---3-3-3-3---0-0-0-0--------|
E:--------------------------------------------------|
      "I see the Ghosts of Navigator but they are lost
       As they sail into the sunset they'll count the cost
       As their skeletons accusing emerge from the sea
       The sirens of the rocks, they becon me"

e:------------------------------------------------------------------------|
B:------------------------------------------------------------------------|
G:-7-7-7-7-7---------------5-5-5-5-5---7-7-7-7-7---------------5-5-5-5-5--|
D:-7-7-7-7-7---------------5-5-5-5-5---7-7-7-7-7---------------5-5-5-5-5--|
A:-5-5-5-5-5---------------3-3-3-3-3---5-5-5-5-5---------------3-3-3-3-3--|
E:------------------------------------------------------------------------|

e:-----5-----------------------------------5------------------------------|
B:--------8-----6---5---6----------------------8---6---5---6---5----------|
G:-7------------------------5----------7----------------------------------|
D:------------------------------------------------------------------------|
A:------------------------------------------------------------------------|
E:------------------------------------------------------------------------|
 "Take my heart and set it free'

e:--------------------------------------------------------------------------|
B:--------------------------------------------------------------------------|
G:-3-3-3-3-3--------------3-3-3-3-3---------7-7-7-7-7-------------5-5-5-5-5-|

D:-3-3-3-3-3--------------3-3-3-3-3---------7-7-7-7-7-------------5-5-5-5-5-|
A:-1-1-1-1-1--------------1-1-1-1-1---------5-5-5-5-5-------------3-3-3-3-3-|
E:--------------------------------------------------------------------------|

e:---------------------------------------------5------------------------|
B:----8----6----5----------8-6-5--------------------8---6----5---6------|
G:-3--------------7-5---3-----------7-5-----7-----------------------7---|
D:----------------------------------------------------------------------|
A:----------------------------------------------------------------------|
E:----------------------------------------------------------------------|
  "Nowhere left to run, Navigator's son     Chasing rainbows all my days"

Rhythm for the solo:

e:------------------------------------------------------------------------------------|
B:-3----------------------------------------------------------------------------------|
G:-2---------------------------3---------------------------5--------------------------|
D:-0--0-0-0-0-0-0-0-0-0-0-0-0--0--0-0-0-0-0-0-0-0-0-0-0-0--0--0-0-0-0-0-0-0-0-0-0-0-0-|
A:------------------------------------------------------------------------------------|
E:------------------------------------------------------------------------------------|

e:-----------|
B:-----------|
G:-5---7-5---|
D:-5---7-5---|
A:-3---5-3---|
E:-----------|   (4x)

After the solo:

e:--------------------------------------------------------------|
B:--------------------------------------------------------------|
G:--------------------------------------------------------------|
D:-9-9--10-7-9-7----9-9--10-7-9-7----9-9--10-7-9-7----5---7-----|
A:-7-7----------10--7-7----------10--7-7----------10--3---5-----|
E:--------------------------------------------------------------| (2x)

e:--------------------------------------------------------|
B:--------------------------------------------------------|
G:--------------------------------------------------------|
D:-7-7--8-5-7-5---7-7--8-5-7-5---7-7--8-5-7-5---3---5-----|
A:-5-5---------8--5-5---------8--5-5---------8--1---3-----|
E:--------------------------------------------------------| (2x)

e:---------------------------------------------------------------------|
B:---------------------------------------------------------------------|
G:---------------------------------------------------------------------|
D:-11-11--12-9-11-9----11-11--12-9-11-9-----11-11--12-9-11-9-----7---9-|
A:-9--9------------12--9--9-------------12--9--9-------------12--5---7-|
E:---------------------------------------------------------------------| (2x)

e:--------------------------------------------------------------|
B:--------------------------------------------------------------|
G:--------------------------------------------------------------|
D:-9-9--10-7-9-7----9-9--10-7-9-7----9-9--10-7-9-7----5---7-----|
A:-7-7----------10--7-7----------10--7-7----------10--3---5-----|
E:--------------------------------------------------------------| (2x)