Iron Maiden - Ghost Of The Navigator Chords & Tabs

 

Ghost Of The Navigator Chords & Tabs

Iron Maiden Chords & Tabs

Version: 5 Type: Tab 0 ratings
1 star 2 stars 3 stars 4 stars 5 stars
comments

Ghost Of The Navigator Tab

				Iron maiden ? ghost of the navigator ( brave new world )


E------------------------------------------------------------------------------------|
B------------------------------------------------------------------------------------|
G--------14 ?12--10 ?9--10--------------------14--12--10--9--10--9-------------------|
D----12------------------------10------------12--------------------------------------|
A------------------------------------------------------------------------------------|
E------------------------------------------------------------------------------------|


E ------------------------------------------------------------------------------------|
B ------------------------------------------------------------------------------------|
G --------12--10--9--10----------10--9--7--9------------------------------------------|
D ----10--------------------10-/8----------------8- ----------------------------------|
A ------------------------------------------------------------------------------------|
E ------------------------------------------------------------------------------------|

[ Tab from: http://www.guitartabs.cc/tabs/i/iron_maiden/ghost_of_the_navigator_tab_ver_5.html ]
E------------------------------------------------------------------------------------|
B------------------------------------------------------------------------------------|
G--------14 ?12--10 ?9--10--------------------14--12--10--9--10--9-------------------|
D----12------------------------10------------12--------------------------------------|
A------------------------------------------------------------------------------------|
E------------------------------------------------------------------------------------|


E --------------------------------------------------------------------------------------|
B --------------------------------------------------------------------------------------|
G --------12--10--9--10----------10--9--7--9---------10--9--7--5--3--3--5-7-------------|
D ----10--------------------10-/8----------------8- 8-----------------------------------|
A --------------------------------------------------------------------------------------|
E --------------------------------------------------------------------------------------|

E --------------------------------------------------------------------------------------|
B --------------------------------------------------------------------------------------|
G --9---10---12-------------------------------------------------------------------------|
D --------------------------------------------------------------------------------------|
A --------------------------------------------------------------------------------------|
E --------------------------------------------------------------------------------------|

This one is pretty close , but if you find any mistakes in this one do mail me at gsbsc@hotmail .com
Comments