Iron Maiden - Ghost Of The Navigator Chords & Tabs

 

Ghost Of The Navigator Chords & Tabs

Iron Maiden Chords & Tabs

Version: 2 Type: Tab 0 ratings
1 star 2 stars 3 stars 4 stars 5 stars
comments

Ghost Of The Navigator Tab

   
name: Mikael Lavér

artist: Iron Maiden

SongTitle: Ghost of the Navigator

Tabs: #----------------------------------PLEASE 
NOTE---------------------------------#
#This file is the author's own work and represents their interpretation 
of the #
#song. You may only use this file for private study, scholarship, or 
research. #
#------------------------------------------------------------------------------#


Song : Ghost of the Navigator
Album : Brave New World

Transcribed by Mikael Lavér


Intro (clean):


    Dm                   C                   Dm                     C

|----5-------------------3--------------------5---------------------3----|
|----6-------------------5--------------------6---------------------5----|
|----7-------------------5--------------------7---------------------5----|
|----7-------------------5--------------------7---------------------5----|
|----5-------------------3--------------------5---------------------3----|
|------------------------------------------------------------------------|
|                                                             
|------------------------------------------------------------------------|
|------------------------------------------------------------------------|
|-------14-12------------------------------------14-12-------------------|
|--------------15-14-15--10~~----------------------------15-14-15---14~~-|
|------------------------------------------------------------------------|
|------------------------------------------------------------------------|


    A#                   A#               C  Dm  

|----1-------------------1----------------3---5---------------------3----|
|----3-------------------3----------------5---6---------------------5----|
|----3-------------------3----------------5---7---------------------5----|
|----3-------------------3----------------5---7---------------------5----|
|----1-------------------1----------------3---5---------------------3----|
|------------------------------------------------------------------------|
|                
|------------------------------------------------------------------------|
|------------------------------------------------------------------------|
|-------12-10--9---------------12-10--9------------14-12-----------------|
|-----------------12-10-12---------------12-10-12----------15-14-15---10~|
|------------------------------------------------------------------------|
|------------------------------------------------------------------------|


[ Tab from: http://www.guitartabs.cc/tabs/i/iron_maiden/ghost_of_the_navigator_tab_ver_2.html ]
    Dm                  A#                  C                   Dm
                                                                             
|--------------------------------------------------------------------------------------|
|--------------------------------------------------------------------------------------|
|-------12-10--9-------------12-10--9------------12-10--9------------9--10--12-10-9----|     
|-----------------12-10-12-------------12-10-12------------12-10-12-----------------12-|     
|--------------------------------------------------------------------------------------|
|--------------------------------------------------------------------------------------|


     Dm                  A#                  C                   Dm
                                                                             
|-----------------------------------------------------------------------------------|
|-----------------------------------------------------------------------------------|
|-------12-10--9-------------12-10--9------------12-10--9------------9--10--12-10-9-|     
|-----------------12-10-12-------------12-10-12------------12-10-12-----------------|     
|-----------------------------------------------------------------------------------|
|-----------------------------------------------------------------------------------|

 
(w.dist)
|-----------------------------------------------------------------------------------|
|-----------------------------------------------------------12~~---10--12-----------|
|-----7-------------------3-------------------5-------------12~~---10--12-----------|     
2X
|-----7-------------------3-------------------5-------------12~~---10--12-----------|
|-----5-------------------1-------------------3-------------------------------------|
|-----------------------------------------------------------------------------------|




--------------------------------------------------------------------------------
Legend
------

 h  = hammer-on		 |  = bar
 p  = pull-off		||  = double bar
 b  = bend		||* = repeat start
 r  = bend release	*|| = repeat end
 /  = slide up/down	*|  = double bar (end)
[5] = nat. harmonic	 !  = repeat beat (¼,8th)
<5> = art. harmonic	!!  = repeat beat (16th)
 ~  = vibrato		 %  = repeat measure
 tr = trill		 :  = bar (freetime)
 T  = tap		du  = tremolo bar dip
 TP = trem. picking	 d  = tremolo bar down
 PM = palm muting	 u  = tremolo bar up
 S  = slap		ud  = tremolo bar inverted dip
 P  = pop		 =  = hold (bend or tremolo bar)
--------------------------------------------------------------------------------
Comments