Iron Maiden - Ghost Of The Navigator Chords & Tabs

 

Ghost Of The Navigator Chords & Tabs

Iron Maiden Chords & Tabs

Version: 1 Type: Bass Tab 0 ratings
1 star 2 stars 3 stars 4 stars 5 stars
comments

Ghost Of The Navigator Bass Tab

                                 GHOST OF THE NAVIGATOR
                                      IRON MAIDEN
                           FROM THE ALBUM " BRAVE NEW WORLD "
                                       BASS TAB
                    TRANSCRIBED BY DARGOR ( dargor_k@hotmail.com )

  * This was made using part of Julio Quinteros tab. I just used the bass lines as a base
    for this tab. I hope he doesnt mind. Sorry man, and thanks.


		-------------------------------------------------
		|  :    REPEAT          |  h    HAMMER ON       |
		|  /    SLIDE UP        |  p    PULL OFF        |
		|  \    SLIDE DOWN      | ( )   HARMINICS       |
		|  >    ACCENT          |  ~    STRING BEND     |
		|  .    STACATTO        |  +    LET RING        |
		-------------------------------------------------


-7-------------5-------------7-------------5-------------3-------------3------------5-7--
-7-------------5-------------7-------------5-------------3-------------3------------5-7--
-5-------------3-------------5-------------3-------------1-------------1------------3-5--
-----------------------------------------------------------------------------------------
 Intro

--------5-------------7-7--7-7-7---3-3--3-3-3---5-5--5-5-5---7-7--7-7-7---7-7--7-7-7---3-
--------5-------------7-7--7-7-7---3-3--3-3-3---5-5--5-5-5---7-7--7-7-7---7-7--7-7-7---3-
--------3-------------5-5--5-5-5---1-1--1-1-1---3-3--3-3-3---5-5--5-5-5---5-5--5-5-5---1-
-----------------------------------------------------------------------------------------

3--3-3-3---5-5--5-5-5---7-7--7-7-7-------------------------------------------------------
3--3-3-3---5-5--5-5-5---7-7--7-7-7-------------------------------------------------------
1--1-1-1---3-3--3-3-3---5-5--5-5-5---5-5-5-5-5-5-5-5-5-5-5-5-5-5-5-5-5-5-5-5-5-5-5-5-5-5-
-----------------------------------------------------------------------------------------

-----------------------------------------------------------------------------------------
-----------------------------------------------------------------------------------------
5-5-5-5-5-5-5-5-5-5-5-5-5-5-5-5-5-5-5-5-5-5-5-5-5-5-5-5-5-5-5-5-5-5-5-5-5-5-5-5-5-5-5-5-5
-----------------------------------------------------------------------------------------
                                                                              intro ends

|--7-------------------3-------------------5-------------------5-----------7-------------
|.-7--.----------------3--.----------------5--.----------------5--.--.--.--7--.----------
|.-5--5--5-5-5--5-5-5--1--1--1-1-1--1-1-1--3--3--3-3-3--3-3-3--3--5--3--0--5--5--5-5-5--5
|----------------------------------------------------------------------------------------

------3-------------------5-------------------5------------|-----------------------------
------3--.----------------5--.----------------5--.--.--.--.|-----------------------------
-5-5--1--1--1-1-1--1-1-1--3--3--3-3-3--3-3-3--3--5--3--0--.|-0-0-0-0-0--3-3-3-3-3-3--2-2-
-----------------------------------------------------------|-----------------------------
                                             play 3 times
                                on second time, lyrics enters

-----------------------------------------------------------------------------------------
----------------.-.--.-------------------------------------------------------.-----------
2-2-2-2--5-5-5--3-3--2--0-0-0-0-0-0--3-3-3-3-3-3--2-2-2-2-2-2--5-5-5--7-7-7--8---0-0-0-0-
-----------------------------------------------------------------------------------------

-----------------------------------------------------------------------------------------
-----------------------------------------------------------------------------------------
0-0--3-3-3-3-3-3--2-2-2-2-2-2--5-5-5--3-3-3--2-2--0-0-0-0-0-0--3-3-3-3-3-3--2-2-2-2-2-2--
-----------------------------------------------------------------------------------------

------------------|--9--------12--------5--------7--------9--------12--------5--------7--
------------------|.-9--------12--------5--------7--------9--------12--------5--------7--
5-5-5--3-3-3--2-2-|.-7--------10--------3--------5--------7--------10--------3--------5--
------------------|----------------------------------------------------------------------
                     slower 

-----|--7-----------------5-----------------7-----------------5-----------------3--------
----.|.-7-----------------5-----------------7-----------------5-----------------3--------
-3--.|.-5--5-5--5--5-5-5--3--3-3--3--3-3-3--5--5-5--5--5-5-5--3--3-3--3--3-3-3--1--1-1--1
-----|-----------------------------------------------------------------------------------
       "take my hand..." ( faster )

---------3-----------------7-----------------5------------------|-7------------------3---
---------3-----------------7-----------------5-----------------.|-7-.----------------3-.-
--1-1-1--1--1-1--1--1-1-1--5--5-5--5--5-5-5--3--3-3--3--3-3-3--.|-5-5--5-5-5--5-5-5--1-1-
----------------------------------------------------------------|------------------------
                                                                  slower

---------------5------------------5-----------7------------------3------------------5----
---------------5-.----------------5--.--.--.--7-.----------------3-.----------------5-.--
-1-1-1--1-1-1--3-3--3-3-3--3-3-3--3--5--3--0--5-5--5-5-5--5-5-5--1-1--1-1-1--1-1-1--3-3--
-----------------------------------------------------------------------------------------

--------------5-----------7------------------3------------------5------------------5-----
--------------5--.--.--.--7-.----------------3-.----------------5-.----------------5--.--
3-3-3--3-3-3--3--5--3--0--5-5--5-5-5--5-5-5--1-1--1-1-1--1-1-1--3-3--3-3-3--3-3-3--3--5--
-----------------------------------------------------------------------------------------

------7------------------3------------------5------------------5-------------------------
.--.--7-.----------------3-.----------------5-.----------------5--.--.-------------------
3--0--5-5--5-5-5--5-5-5--1-1--1-1-1--1-1-1--3-3--3-3-3--3-3-3--3--5--3--0-0-0-0-0-0--3-3-
-----------------------------------------------------------------------------------------
[ Tab from: http://www.guitartabs.cc/tabs/i/iron_maiden/ghost_of_the_navigator_btab.html ]
-----------------------------------------------------------------------------------------
-----------------------------.-.--.------------------------------------------------------
3-3-3-3--2-2-2-2-2-2--5-5-5--3-3--2--0-0-0-0-0-0--3-3-3-3-3-3--2-2-2-2-2-2--5-5-5--7-7-7-
-----------------------------------------------------------------------------------------

-----------------------------------------------------------------------------------------
-.---------------------------------------------------------------------------------------
-8--0-0-0-0-0-0--3-3-3-3-3-3--2-2-2-2-2-2--5-5-5--3-3-3--2-2--0-0-0-0-0-0--3-3-3-3-3-3--2
-----------------------------------------------------------------------------------------

-----------------------------|--9-------12--------5--------7-------9-------12--------5---
-----------------------------|.-9-------12--------5--------7-------9-------12--------5---
2-2-2-2-2--5-5-5--3-3-3--2-2-|.-7-------10--------3--------5-------7-------10--------3---
-----------------------------|-----------------------------------------------------------

---7--------|-7-----------------5-----------------7-----------------5-----------------3--
---7-------.|-7-----------------5-----------------7-----------------5-----------------3--
---5---3---.|-5--5-5--5--5-5-5--3--3-3--3--3-3-3--5--5-5--5--5-5-5--3--3-3--3--3-3-3--1--
------------|----------------------------------------------------------------------------

---------------3-----------------7-----------------5-----------------7-----------------5-
---------------3-----------------7-----------------5-----------------7-----------------5-
1-1--1--1-1-1--1--1-1--1--1-1-1--5--5-5--5--5-5-5--3--3-3--3--3-3-3--5--5-5--5--5-5-5--3-
-----------------------------------------------------------------------------------------

----------------7-----------------5-----------------3-----------------3------------------
----------------7-----------------5-----------------3-----------------3------------------
-3-3--3--3-3-3--5--5-5--5--5-5-5--3--3-3--3--3-3-3--1--1-1--1--1-1-1--1--1-1--1--1-1-1---
-----------------------------------------------------------------------------------------

7-----------------5-----------------|--7------------------3------------------5-----------
7-----------------5-----------------|.-7-.----------------3-.----------------5-.---------
5--5-5--5--5-5-5--3--3-3--3--3-3-3--|.-5-5--5-5-5--5-5-5--1-1--1-1-1--1-1-1--3-3--3-3-3--
------------------------------------|----------------------------------------------------
                                       guitar solo

-------5-----------7------------------3------------------5------------------5-----------|
-------5-----------7-.----------------3-.----------------5-.----------------5----------.|
3-3-3--3--5--3--0--5-5--5-5-5--5-5-5--1-1--1-1-1--1-1-1--3-3--3-3-3--3-3-3--3--5--3--0-.|
----------------------------------------------------------------------------------------|

-----------------------------------------------------------------------------------------
-----10-10-9-9--------10-10-9-9--------10-10-9-9----->-->------10-10-9-9--------10-10-9-9
-7-7-----------10-7-7-----------10-7-7-----------10--3--5--7-7-----------10-7-7----------
-----------------------------------------------------------------------------------------
 Faster

-----------------------------------------------------------------------------------------
--------10-10-9-9----->-->------8-8-7-7-------8-8-7-7-------8-8-7-7---->-->------8-8-7-7-
-10-7-7-----------10--3--5--5-5---------8-5-5---------8-5-5---------8--1--3--5-5---------
-----------------------------------------------------------------------------------------

-----------------------------------------7-7-6-6-------7-7-6-6-------7-7-6-6-------------
------8-8-7-7-------8-8-7-7---->-->--4-4---------7-4-4---------7-4-4---------7-->-->--4-4
8-5-5---------8-5-5---------8--1--3---------------------------------------------5--7-----

-7-7-6-6-------7-7-6-6-------7-7-6-6-----------------------------------------------------
---------7-4-4---------7-4-4---------7-->-->------10-10-9-9--------10-10-9-9--------10-10
----------------------------------------5--7--7-7-----------10-7-7-----------10-7-7------
-----------------------------------------------------------------------------------------

-------------------------------------------------------------------------9-------12------
-9-9----->-->------10-10-9-9--------10-10-9-9--------10-10-9-9----->-->--9-------12------
-----10--3--5--7-7-----------10-7-7-----------10-7-7-----------10--3--5--7-------10------
-----------------------------------------------------------------------------------------
                                                                         Slower

-5--------7-------9-------12--------5--------7-------9-------12--------5--------7--------
-5--------7-------9-------12--------5--------7-------9-------12--------5--------7--------
-3--------5-------7-------10--------3--------5---3---7-------10--------3--------5--------
-----------------------------------------------------------------------------------------

9-------12--------5--------7--------7-----------------5-----------------7----------------
9-------12--------5--------7--------7-----------------5-----------------7----------------
7-------10--------3--------5---3----5--5-5--5--5-5-5--3--3-3--3--3-3-3--5--5-5--5--5-5-5-
-----------------------------------------------------------------------------------------
                                   Faster

5-----------------3-----------------3-----------------7-----------------5----------------
5-----------------3-----------------3-----------------7-----------------5----------------
3--3-3--3--3-3-3--1--1-1--1--1-1-1--1--1-1--1--1-1-1--5--5-5--5--5-5-5--3--3-3--3--3-3-3-
-----------------------------------------------------------------------------------------

-7-----------------5-----------------7-----------------5-----------------3---------------
-7-----------------5-----------------7-----------------5-----------------3---------------
-5--5-5--5--5-5-5--3--3-3--3--3-3-3--5--5-5--5--5-5-5--3--3-3--3--3-3-3--1--1-1--1--1-1-1
-----------------------------------------------------------------------------------------

--3-----------------7-----------------5-------------------->-->--------------------------
--3-----------------7-----------------5----------------->--7--5-->-->-->-->--------------
--1--1-1--1--1-1-1--5--5-5--5--5-5-5--3--3-3--3--3-3-3--5--------8--7--8--5--5-5-5-5-5-5-
-----------------------------------------------------------------------------------------

----------------7-7-7----------------------------------||
----------------7-7-7---------------------+------------||
5-5-5-5-5-5-5-5-5-5-5-5-5-5-5-5-5-5-5-5-5-5------------||
-------------------------------------------------------||
Comments