Iron Maiden - Futureal Chords & Tabs

 

Futureal Chords & Tabs

Iron Maiden Chords & Tabs

Version: 1 Type: Bass Tab 0 ratings
1 star 2 stars 3 stars 4 stars 5 stars
comments

Futureal Bass Tab

   
Iron Maiden
Futureal
Tabbed by Dan (argybahji@hotmail.com)

[Intro]
G|----------------------------------------------------------------
D|----------------------------------------------------------------
A|-7-7-7-7-7-7-7-7-3-3-3-3-3-3-3-3-5-5-5-5-5-5-5-5-5-5-5-5-5-5-5-5
E|----------------------------------------------------------------

G|----------------------------------------------------------------
D|----------------------------------------------------------------
A|-7-7-7-7-7-7-7-7-3-3-3-3-3-3-3-3-0-0-0-0-0-0-0-0-0-0-0-0-0-0-0-0
E|----------------------------------------------------------------

[Verse]
G|----------------------------------------------------------------
D|----------------------------------------------------------------
A|-77-77777-77-77777-77-77777-7-7-7-7-33333333-55555555-77777777--
E|----------------------------------------------------------------

[Bridge]
G|----------------------------------------------------------------
D|----------------------------------------------------------------
A|-3-3-3-3-3-3-3-3-5-5-5-5-5-5-5-5-3-3-3-3-3-3-3-3-5-5-5-5-5-5-5-5
E|----------------------------------------------------------------
[ Tab from: http://www.guitartabs.cc/tabs/i/iron_maiden/futureal_btab.html ]
[Chorus]
G|----------------------------------------------------------------
D|----------------------------------------------------------------
A|-7-7-7-7-3-3-3-3-5-5-5-5-5-5-5-5-7-7-7-7-3-3-3-3-5-5-5-5-5-5-5-5
E|----------------------------------------------------------------

[Solo]
G|----------------------------------------------------------------
D|----------------------------------------------------------------
A|-77777777-77777777-3-----------------77777777-77777777-77777777-
E|----------------------------3-----------------------------------

G|----------------------------------------------------------------
D|----------------------------------------------------------------
A|-3-----------------5-----------------55555555-55555555-3--------
E|----------3-----------------5----------------------------------3

G|----------------------------------------------------------------
D|----------------------------------------------------------------
A|-77777777-77777777----------------------------------------------
E|----------------------------------------------------------------

[Interlude]
G|----------------------------------------------------------------
D|----------------------------------------------------------------
A|-77777777-3---3-33333333-3---3-7777777-3---3-33333333-3---3-----
E|------------3--------------3-------------3--------------3-------


Structure:
==================
Intro		x2
Verse		x2
Bridge		x1
Chorus		x2
Verse		x2
Bridge		x1
Chorus		x1
Solo		x2
Interlude	x2
Intro		x1
Bridge		x1
Chorus		x4
Comments