Iron Maiden - Fear Of The Dark Chords & Tabs

 

Fear Of The Dark Chords & Tabs

Iron Maiden Chords & Tabs

Version: 8 Type: Tab 0 ratings
1 star 2 stars 3 stars 4 stars 5 stars
comments

Fear Of The Dark Tab

TITLE:FEAR OF THE DARK
ARTIST:IRON MAIDEN
ALBUM:FEAR OF THE DARK

*please note*
THESE ARE JUST THE MAIN RIFFS WHICH APPEAR IN THE SONG. THE CHORDS ARE NOT
INCLUDED.

RIFF 1

E------------------------------------------------------------------
B------------------------------------------------------------------
G------------------------------------------------------------------
D--------------2-2-3-3-2-2------3--------------------2-2--------2--
A-5-5-0-0-5-5---------------5-5----0-3-3-----3-3-5-5----5-5-3-3--0-
E----------------------------------------3-3-----------------------

RIFF 2

E-----------------------------------------------------------------
B-----------------------------------------------------------------
G---------------------------------------------2-2-4-4-2-2-----4---
D---------------------------------5-5-0-0-5-5-------------5-5---5-
A-------------2-2-3-3-2-2-----3-0---------------------------------
E-5-5-0-0-5-5-------------5-5-------------------------------------

RIFF 3

E------------------------------------------------------------------
B------------------------------------------------------------------
G-------------------------------------------------2-2---------2----
D---------------------------------3-3-----3-3-5-5-----5-5-3-3---3--
A-------------2-2-3-3-2-2-----2-0-----3-3--------------------------
E-5-5-0-0-5-5-------------5-5--------------------------------------

RIFF 4

E------------------------------------------------------
B-----5-6-8-6-5-----------------6-------5-6-8-6-5------
G---7-----------5---5-----5---5---7---7-----------5----
D-7---------------5---5-8---8-------7---------------5--
A------------------------------------------------------
E------------------------------------------------------
[ Tab from: http://www.guitartabs.cc/tabs/i/iron_maiden/fear_of_the_dark_tab_ver_8.html ]
RIFF 5
                        
E--------------------   -------------------------------
B--------------------   -------------------------------
G--------------------   -------------------------------
D------7-7-5-5-7-7---X6 --------------------5----------
A-5-5----------------   --5-----5-5-7-7-8-8---8-7-5----
E--------------------   ----5-5------------------------

RIFF 6

E----------------------------------
B---5-6-5-6-5----------------------
G-7------------7-7-5---------------
D--------------------8-8-7-5-7-8-7-
A----------------------------------
E----------------------------------

RIFF 7

E-----------------------------------------
B-------5-6-5-6-5-------------------------
G----7--------------7-7-5-----------5-7---
D---------------------------8-8-7-5-------
A-----------------------------------------
E-----------------------------------------

RIFF 8

E--------------------------------------------------------------
B---------------5-6-8-6-5-------------5-6-8-6-5----------------
G-------7----7-----------------7----7--------------7-5---------
D----7----7-----------------7----7-----------------------7-8-7-
A--------------------------------------------------------------
E--------------------------------------------------------------

RIFF 9

E--------------------------------------------------
B---------5-6-8-6-5----------5-6-8-6-5--------b10--
G---7---7--------------7---7-----------7-5---------
D-7---7--------------7---7-----------------7-------
A--------------------------------------------------
E--------------------------------------------------

RIFF 10

E---5-----------5------------------------------
B-----6-8---------6-8-6---6---5-------6---5----
G-7-------7-7-7-------------7-----------7---5--
D-----------------------8-------8-8-8----------
A----------------------------------------------
E----------------------------------------------

RIFF 11

E-------------------------------------------------------
B-------------------6---5-------------------------------
G-------7---5---------7---5---7---7-5---5-7---7-5---5---
D-5-5-5---8---7-7-7---------7---7-----7-----7-----7---7-
A-------------------------------------------------------
E-------------------------------------------------------
Comments