Iron Maiden - Fear Of The Dark Chords & Tabs

 

Fear Of The Dark Chords & Tabs

Iron Maiden Chords & Tabs

Version: 2 Type: Tab 2 ratings
1 star 2 stars 3 stars 4 stars 5 stars
comments

Fear Of The Dark Tab

   
For any other Questions mail me: Naglfar@drei.at


Intro. (w/distortion)

e|-------------------------------------------------------------------|
b|-------------------------------------------------------------------|
g|-------------------------------------------------------------------|
d|-0-0-----0-0--2-2-3-3-2-2-0-0-2-2-------------0-0-2-2-0-0-----2----|
a|-----0-0--------------------------3-3-0-0-3-3-------------3-3---3--|
e|-------------------------------------------------------------------|



e|-------------------------------------------------------------------|
b|-------------------------------------------------------------------|
g|-------------------------------------------------------------------|
d|-0-0-----0-0--2-2-3-3-2-2-0-0-2-2-------------0-0-2-2-0-0-----2----|
a|-----0-0--------------------------3-3-0-0-3-3-------------3-3---3--|
e|-------------------------------------------------------------------|



e|-------------------------------------------------------------------|
b|-------------------------------------------------------------------|
g|-------------------------------------------------------------------|
d|-------------------------------------------------------------------|
a|-0-0-----0-0--2-2-3-3-2-2-0-0-2-2-------------0-0-2-2-0-0-----2----|
e|-----0-0--------------------------3-3-0-0-3-3-------------3-3---3--|



e|-------------------------------------------------------------------|
b|-------------------------------------------------------------------|
g|-------------------------------------------------------------------|
d|-------------------------------------------------------------------|
a|-0-0-----0-0--2-2-3-3-2-2-0-0-2-2-------------0-0-2-2-0-0-----2----|
e|-----0-0--------------------------3-3-0-0-3-3-------------3-3---3~~|
End of intro.

Part 2:
               All this part
e|-------------------------------------------------------------------|
b|-------------------------------------------------------------------|
g|-----------0-----------------------------------0-------------------|
d|-----0-2-3---3-2-------------------------0-2-3---3-2---------------|
a|---0-------------3~-3-3-0-2-3--2/3-0---0-------------3-------------|
e|-(0)---------------------------------------------------------------|


  Im a men who walks alone ---> Repeat this part a lot of times
e|-------------------------------------------------------------------|
b|-------------------------------------------------------------------|
g|-------------------------------------------------------------------|
d|----7---7---7---7---5---5---5---5---3---3---3---3---5---5---5---7--|
a|--5---5---5---5---3---3---3---3---1---1---1---1---3---3---3---5----|
e|-------------------------------------------------------------------|



  Chorus-B     Repeat the Chorus-B 2 times.
e|-------------------------------------------------------------------| 
b|-------------------------------------------------------------------|
g|-------------------------------------------------------------------|
d|-0-0-7-7-5-5-7-7-0-0-7-7-5-7-5-0-0-7-7-5-5-7-7-0-0-7-7-5-7-5-0-0---|
a|-------------------------------------------------------------------|
e|-------------------------------------------------------------------|


e|-------------------------------------------------------------------|
b|-------------------------------------------------------------------|
g|-------------------------------------------------------------------|
d|-0-0-7-7-5-5-7-7-0-0-7-7-5-7-5-0-0-----0-0-2-2-3-3-2-2-0-0-2-0-0---|
a|-----------------------------------0-0-----------------------------|
e|-------------------------------------------------------------------|

  Chorus-C
e|-------------------------------------------------------------------|
b|-5~~-7-8-7-8h5-7-5-----------5~~-7-8-7-8h5-7-5---------------------|
g|-------------------5-7-8-7-9-------------------5-7-8-7-9-----------|
d|-------------------------------------------------------------------|
a|-------------------------------------------------------------------|
e|-------------------------------------------------------------------|


e|-------------------------------------------------------------------|
b|-0-5-0-5-7-8-9h7-0-5-7-8-9h7-8-7-5-7---0-5-0-5-7-8-9h7-0-5-0-5-9h8-|
g|-------------------------------------5-----------------------------|
d|-------------------------------------------------------------------|
a|-------------------------------------------------------------------|
e|-------------------------------------------------------------------|


e|--3h4--------------------------------------------------------------|
b|-------------------------------------------------------------------|
g|-------------------------------------------------------------------|
d|-------------------------------------------------------------------|
a|-------------------------------------------------------------------|
e|-------------------------------------------------------------------|


 Chorus-A  (solo begins with guitar 1)

e|----------------------------------------------|
B|-----14---------------------------------------|
G|--12-13----12-14-12^10------10---10^0---------|
D|------------------------12--------------------|
A|---------------------------------------10^12--|
E|----------------------------------------------|


e|--------------------10-10-10------13--15------|
B|--------------------10-10-10------------------|
G|---10-----12-14-------------------------------|
D|---10-----------------------------------------|
A|----------------------------------------------|
A|----------------------------------------------|

[ Tab from: http://www.guitartabs.cc/tabs/i/iron_maiden/fear_of_the_dark_tab_ver_2.html ]
e|-15---13^12-10----10--------------------------|
B|---------------10----13-11^10-----10----------|
G|-------------------------------12----12^10----|
D|-------------------------------------------12-|
A|----------------------------------------------|
E|----------------------------------------------|


e|----------------------------------------------|
B|----------------------------------------------|
G|--10----12-----10----10----10^2-\-------------|
D|----------------------------------------------|
A|----------------------------------------------|
E|----------------------------------------------|


e|-15-17----15-13^12-13-------------------------|
B|----------------------13-----------13---------|
G|--------------------------------12------12^10-|
D|-----------------------------14---------------|
A|--------------------------15------------------|
E|----------------------------------------------|


e|----------------------------------------------|
B|----10----------------------------------------|
G|-12-14---12-14--12^10-------10----------------|
D|------------------------12--------------------|
A|----------------------------------------------|
E|----------------------------------------------|


e|------13----------------------------------------------|
B|------13----------------------------------------------|
G|-(12)-14-(12)-14-12^10----10--------------------------|
D|-----------------------12----12^10----10--------------|
A|-----------------------------------12----12--11^10^8--|
E|------------------------------------------------------|


e|-----------------------------------------------------||
B|-----------------------------------------------------||
G|-----------------------------------------------------||
D|-----------------------------------------------------||
A|--10^8-----------------------------------------------||
E|---------10----10-----10-----------------------0-----||



Here begins guitar 2:

e|------\19----17----16--17--16^14^16^14------15^14--------------------------|
B|----------------------------------------17---------17^14^12----14^---------|
G|------------------------------------------------------------16-------------|
D|---------------------------------------------------------------------------|
A|---------------------------------------------------------------------------|
E|---------------------------------------------------------------------------|


e|---------------------------------------------------------------------------|
B|-^17^14----14^17^14----14-15^14----14-15^14----------------14^15-14-17-19--|
G|--------16----------16----------16----------16^14^13-14^16-----------------|
D|---------------------------------------------------------------------------|
A|---------------------------------------------------------------------------|
E|---------------------------------------------------------------------------|


e|---------------(17)-15-17^14-----------------------------------------------|
B|-(17)-15-17^14---------------17^14---15^14----14^17^14---14----------------|
G|-----------------------------------0-------16----------16---16^14^16^14----|
D|------------------------------------------------------------------------16-|
A|---------------------------------------------------------------------------|
E|---------------------------------------------------------------------------|


e|------------------------------------------------------19-19-21-------------|
B|---------------------------------------------------------------------------|
G|--14-----------------------------14-16-18-16-14-14^6-----------------------|
D|------16^14-16^14-----------14^16------------------------------------------|
A|------------------16^16-16-------------------------------------------------|
E|---------------------------------------------------------------------------|


e|----21----21----20----17^16------------------------------------------------|
B|-----------------------------17------------14^15^16------------------------|
G|---------------------------------16^14^16----------------------------------|
D|---------------------------------------------------------------------------|
A|---------------------------------------------------------------------------|
E|---------------------------------------------------------------------------|


e|-14^17^16^14----14^16^14---------------------------------------------------|
B|-------------17----------17^15^14--14^15^14--14^15^14----------------------|
G|-----------------------------------------------------16^18--18^19^18^19^18-|
D|---------------------------------------------------------------------------|
A|---------------------------------------------------------------------------|
E|---------------------------------------------------------------------------|


e|---------------------------------------------------------------------------|
B|--------------------------------------------------------------14--19-------|
G|-19---18^19^18^16-18---16^18^16^14-16---14^16^14^13-14-----14--------------|
D|--------------------------------------------------------16-----------------|
A|---------------------------------------------------------------------------|
E|---------------------------------------------------------------------------|


e|--------------------------------------------------------------------------|
B|---19---14^19^14-------------14-19-19-------------------------------------|
G|------------------14------14----------------------------------------------|
D|----------------------14--------------------------------------------------|
A|--------------------------------------------------------------------------|
E|--------------------------------------------------------------------------| 
Comments