Iron Maiden - Fear Of The Dark Chords & Tabs

 

Fear Of The Dark Chords & Tabs

Iron Maiden Chords & Tabs

Version: 3 Type: Bass Tab 0 ratings
1 star 2 stars 3 stars 4 stars 5 stars
comments

Fear Of The Dark Bass Tab

from the album Fear of the Dark

standard tuning

Intro 1
G|-----------------------------|
D|-----------------------------|
A|-5~-3~-5~-3~-----------------|
E|-------------5~-3~-5~-1~-3~--|

Intro 2
G|-------------------------------------------------------------------|
D|---7---7---7---7---3---3---3---3---5---5---5---5---3---3---5---5---|
A|-5---5---5---5---1---1---1---1---3---3---3---3---1---1---3---3-----|
E|-------------------------------------------------------------------|

Intro 2 (continued)   2x
G|-------------------------------------------------------------------|
D|---7---7---7---7---3---3---3---3---5---5---5---5---5---5---5---5---|
A|-5---5---5---5---1---1---1---1---3---3---3---3---3---3---3---3-----|
E|-------------------------------------------------------------------|

Intro 3      2x
G|-------------------------------------------------------------------|
D|---7---7---7---7---3---3---3---3---5---5---5---5---3---3---5---5---|
A|-5---5---5---5---1---1---1---1---3---3---3---3---1---1---3---3-----|
E|-------------------------------------------------------------------|

Intro 4
G|---------------------------------------------------5---5---7---7---|
D|---7---7---7---7---3---3---3---3---5---5---5---5-3---3---5---5-----|
A|-5---5---5---5---1---1---1---1---3---3---3---3---------------------|
E|-------------------------------------------------------------------|

Intro 5
G|-------------------------------------------------------------------|
D|---7---7---7---7---3---3---3---3---5---5---5---5---5---5---5---5---|
A|-5---5---5---5---1---1---1---1---3---3---3---3---3---3---3---3-----|
E|-------------------------------------------------------------------|

Intro 6
G|-------------------------------------------------------------------|
D|---3---3---3---3---5---5---5---5---7---7---7---7---5---5---5-------|
A|-1---1---1---1---3---3---3---3---5---5---5---5---3---3---3---3-----|
E|-------------------------------------------------------------------|

Intro 7 (continued)     2x
G|-------------------5---5---7---7-----------------------------------|
D|---3---3---3---3-3---3---5---5----7---7---7---7---7---7---7---7----|
A|-1---1---1---1------------------5---5---5---5---5---5---5---5------|
E|-------------------------------------------------------------------|

Break
G|----------------------------------------------------------------|
D|----------------------------------------------------------------|
A|-5-5-5-0-5-5-5-0-5-5-5-0-5-5-5-1-1-1---1-1-1---1-1-1---1-1-1----|
E|-------------------------------------1-------1-------1----------|

Break (continued)      2x
G|----------------------------------------------------------------|
D|----------------------------------------------------------------|
A|-3-3-3---3-3-3---3-3-3---3-3-3-5-5-0-0-5-5-7-7-8-8-10-10-8-8-7--|
E|-------3-------3-------3----------------------------------------|
[ Tab from: http://www.guitartabs.cc/tabs/i/iron_maiden/fear_of_the_dark_btab_ver_3.html ]
Verse 1     2x
G|---------------------------------------------------|
D|---------------------------------------------------|
A|-5-5-5-5-5-5-1-1-1-1-1-1-3-3-3-3-3-3-5-5-5-5-5-5---|
E|---------------------------------------------------|

Chorus      2x
G|-------------------------------------------------------------------|
D|-----------------------------------------3-3-5-5-------------------|
A|-1-1-1-1-3-3-3-3-5-5-5-5-3-3-3-3-1-1-1-1---------5-5-5-5-5-5-5-5---|
E|-------------------------------------------------------------------|

Verse 2
G|-------------------------------------------------------------------|
D|-------------------------------------------------------------------|
A|-5-5-5-5-1-1-1-1-3-3-3-3-5-5-3-3-5-5-5-5-1-1-1-1-3-3-3-3-3-3-3-3---|
E|-------------------------------------------------------------------|

Verse 2 (continued)
G|-------------------------------------------------------------------|
D|-------------------------3-3-5-5-----------------------------------|
A|-5-5-5-5-1-1-1-1-3-3-3-3---------5-5-5-5-1-1-1-1-3-3-3-3-3-3-3-3---|
E|-------------------------------------------------------------------|

Chorus x2

Break x2

Bridge 1 (solo)     2x
G|----------------------------------------------------------|
D|----------------------------------------------------------|
A|-5-5-5-5-5-5-1-1-1-1-1-1-------------1-1-3-3-5-5-5-5-5-5--|
E|-------------------------3-3-3-3-3-3----------------------|

Bridge 2      2x
G|----------------------------------------------------|
D|----------------------------------------------------|
A|-5-5-5-5-5-5-1-1-1-1-1-1-------------3-5-5-5-5-5-5--|
E|-------------------------3-3-3-3-3-3----------------|

Bridge 3       2x
G|--------------------------------------------------|
D|--------------------------------------------------|
A|-5-5-5-5-5-5-5-5-1-1-1-1-3-3-3-3-5-5-5-5-5-5-5-5--|
E|--------------------------------------------------|

Bridge 4      2x
G|--------------------------------------------------|
D|--------------------------------------------------|
A|-9-9-9-9-9-9-9-9-5-5-5-5-7-7-7-7-9-9-9-9-9-9-9-9--|
E|--------------------------------------------------|

Bridge 5      4x
G|------------------------------------------------------|
D|------------------------------------------------------|
A|-5-5-5-5-5-5-1-1-1-1-1-1-----------------5-5-5-5-5-5--|
E|-------------------------3-3-3-3-5-5-5-5--------------|

Break x2

Verse 3      2x
G|------------------------------------------------------------------|
D|------------------------------------------------------------------|
A|-5-5-5-5-1-1-1-1-3-3-3-3---------5-5-5-5-1-1-1-1-3-3-3-3-3-3-3-3--|
E|-------------------------1-1-3-3----------------------------------|

Chorus x2

Outro chorus
G|-----------------------------------------------|
D|------------------------------------3~-5~------|
A|-1-1-1-1-3-3-3-3-5-5-5-5-3-3-3-3-1~-------5~---|
E|-----------------------------------------------|

Intro 1

Outro
G|---------------------------------------------------5---5---7---7----7------|
D|---7---7---7---7---3---3---3---3---5---5---5---5-3---3---5---5-----7---7---|
A|-5---5---5---5---1---1---1---1---3---3---3---3------------------5-------5~-|
E|---------------------------------------------------------------------------|

~ = let ring
Comments