Iron Maiden - Face In The Sand Chords & Tabs

 

Face In The Sand Chords & Tabs

Iron Maiden Chords & Tabs

Version: 1 Type: Tab 0 ratings
1 star 2 stars 3 stars 4 stars 5 stars
comments

Face In The Sand Tab

Intro- Part 1
E------------------------------------------------------------------|
B------------------------------------------------------------------|
G-----7--------------------------7---------------------------------|
D-9-9---9-7----7-9-7---------9-9---9-7----7-9-7--------------------|
A-----------10-------10-9-7-----------10---------------------------|
E------------------------------------------------------------------|
[ Tab from: http://www.guitartabs.cc/tabs/i/iron_maiden/face_in_the_sand_tab.html ]
E-----------------------------------------------------------------|
B-----------------------------------------------------------------|
G-----7-----------------------------------------------------------|
D-9-9---9-7----7-9-7----------------7-9-7-------------------------|
A-----------10-------10-9-7-9-10-10-------10-9--------------------|
E----------------------------------------------10-----------------|

Part 2

E----------------------------------------------------------------|
B----------------------------------------------------------------|
G----------------------------------------------------------------|
D----------------------------------------------------------------|
A-10-9-7--10-9-7--10-9-7--10-9-----10-9-7--10-9-7--10-9----------|
E------------------------------10-----------------------10-------|

E----------------------------------------------------------------|
B----------------------------------------------------------------|
G----------------------------------------------------------------|
D-------------------------------------------------7-9-7----------|
A-10-9-7--10-9-7--10-9-7--10-9-----10-9-7-9-10-10----------------|
E------------------------------10--------------------------------|
Comments