Iron Maiden - Dream Of Mirrors Chords & Tabs

 

Dream Of Mirrors Chords & Tabs

Iron Maiden Chords & Tabs

Version: 2 Type: Tab 0 ratings
1 star 2 stars 3 stars 4 stars 5 stars
comments

Dream Of Mirrors Tab

   
#----------------------------------PLEASE NOTE--------------------------------#
#This file is the author's own work and represents their interpretation of the#
#song. You may only use this file for private study, scholarship, or research.#
#-----------------------------------------------------------------------------#

Author/Artist: Iron Maiden
Title: Dream Of Mirrors
Album: Brave New World
Transcribed by: Skywise
Email: skywise10@hotmail.com



   intro
                                                                             
x2
e |---------------------------------------------------------------------------|
B |------4h5h4----------4h54---7-------4h5h4----------------------------------|
G |------------5-------------5---------------5-----------------5-4------------|
D |-7-7----------5--7-7-----------7-7----------5-----------3-2----------------|
A |-7-7-------------7-7-----------7-7--------------3-2-3-2--------------------|
E |-5-5-------------5-5-----------5-5-----------------------------------------|



e |-------------------------------------------------------------------------------------------|
B |--------5--5h6h5---5---------5--5h6h5---5-6-8--------3--3h4h3---3--------5--5h6h5---5-6-8--|
G |-----------------7--------------------7-----------------------5-------------------7--------|
D |-7-7-7----------------7-7-7--------------------5-5-5---------------7-7-7-------------------|
A |-------------------------------------------------------------------------------------------|
E |-------------------------------------------------------------------------------------------|


     guitar 1:                        x4
e |------------------------------------|
B |------------------------------------|
G |-9h10h9----7h9h7---5h7h5---4h5h4----|
D |-------10-------9-------7-------5---|
A |------------------------------------|
E |------------------------------------|

On the 5th time and there on guitar 2 plays
this underneath the first strike:

e |-0--|
B |-0--|
G |-2--|
D |-2--|
A |-0--|
E |----|

  " All my hopes and expectations... "
  guitar 1                                guitar 2                           
             x4
e |---------------------------------------|-0---------------------0------------------------|
B |---------------------------------------|-1---------------------3------------------------|
G |------10---------10--------7-------7---|-2---------------------2------------------------|
D |---10----10---10----10---7---7---7---7-|-3---------------------0------------------------|
A |-8----------8----------5-------5-------|-3----------------------------------------------|
E |---------------------------------------|-1----------------------------------------------|


  " The dream is true... "
                               x3                     4th time
e |-----------------------------|----------------------------|
B |----------1-0-----(1)--------|----------1-0---------------|
G |-----2----2-2------0-----(0)-|-----2----2-2---------------|
D |---2---2---------2--------0--|---2---2-----------3------5-|
A |-0-------------3--------2----|-0---------------3------5---|
E |----------------------3------|---------------1------3-----|


   F5               D5
   All my hopes and expactation
   F5            D5
   Looking for an explanation
   F5           D5
   Coming to the realization
   F5                   G5
   That I can't see for sure

Chorus:

        A5              F5       G5
     I only dream in black and white
     A5                    F5   G5
     I only dream 'cause I'm alive
     A5              F5        G5
     I only dream in black and white
        F5                G5
     To save me from myself


The fast part:


e |-----------------------------------------------------------------|
B |-----------------------------------------------------------------|
G |--4h5---4-4-------4h5---4-4-------2h3---2-2-------2h3---2-2------|
D |------7----7---7-----7-----7---7------5-----5---5-----5----5---5-|
A |-------------7---------------7----------------5--------------5---|
E |-----------------------------------------------------------------|

        A5
     Lost in a dream of mirrors
     G5
     Lost in paradox
     A5
     Lost and time is spinning
     F5           G5
     Lost a nightmare I retrace



   Interlude:

                  x3      4th time                                            
harmony
e |-------------------------|--------------| |-----------------------------------|--------------|
B |-------------------------|--------------| |-----------------------------------|--------------|
G |-5-4-------999-777-555-4-|-5-4--------4-| |-9------------121212-101010-999----|9-------------|
D |-----7-5-7---------------|-----7-5-7----| |---12-10-9-10-------------------12-|-12-10-9-10-12|
A |-------------------------|--------------| |-----------------------------------|--------------|
E |-------------------------|--------------| |-----------------------------------|--------------|



Solo: A5 F5 C5 F5 G5



  outro:          x2
e |----------------------|
B |----------------------|
G |------9h10h9--------7-|
D |------------10--------|
A |-0-0-----------0-0----|
E |----------------------|
                                                                          




#-----------------------------------------------------------------------------#
#-- File created with Instab - http://www.pconline.com/~smcarey/instab.html --#
#-----------------------------------------------------------------------------#

Author/Artist: Iron Maiden
Title: Dream of Mirrors
Album: Brave New World
Transcribed by: Corey McClure
Email: Ozzman3845@aol.com

This is my first internet-posted tab! Even so, I'll soon 
be posting lots of other tabs of Maiden...WITH SOLOS!
On the solo to Dream of Mirrors, I have tabbed every 
note that I can possibly hear. That being said, any 
corrections are VERY, VERY welcome. I hope you
have fun with this, as it is very fun to play (but it's 
HELL to tab out the solo as well as the rest of the
song when your computer keeps deleting your tab!).
Oh yeah, I forgot, for Guitar 4, a harmonizer can be 
used to simulate the twelve-string effect. For this, 
I recommend the Digitech Whammy pedal.



Guitars 1 and 2(distorted)

------------------------------------------------------------------------------
------------------------------------------------------------------------------
-2-2---4-5-4--------2-2---4-5-4---/7^^--2-2---4-5-4-------------------5-4-----
-2-2---------5------2-2---------5-------2-2---------5-------------3-2---------
-0-0-----------5^^--0-0-----------------0-0-----------5^^\3-2-3-2-------------
------------------------------------------------------------------------------
                                                                              

------------------------------------------------------------------------------
------------------------------------------------------------------------------
-2-2---4-5-4--------2-2---4-5-4---/7^^--2-2---4-5-4-------------------5-4-----
-2-2---------5------2-2---------5-------2-2---------5-------------3-2---------
-0-0-----------5^^--0-0-----------------0-0-----------5^^\3-2-3-2-------------
------------------------------------------------------------------------------
 Guitar 3(clean)                                                              

------------------------------------------------------------------------------
------------------------------------------------------------------------------
-------9^^-9h10p9-7-9^^-------9^^-9h10p9-7-9-10/12^^--------7^^-7h8p7-5-7^^---
-7-7-7------------------7-7-7-------------------------5-5-5-------------------
------------------------------------------------------------------------------
------------------------------------------------------------------------------
                                                                              

------------------------------------------------------------------------------
------------------------------------------------------------------------------
-------9^^-9h10p9-7-9-10/12^^-------------------------------------------------
-7-7-7------------------------------------------------------------------------
------------------------------------------------------------------------------
------------------------------------------------------------------------------
 Verses 1,2,and 3[2&3 add Guitar 4(clean 12-string),but are played the same]  

------------------------------------------------------------------------------
------------------------------------------------------------------------------
-------9h10p9----------7h9p7---------5h7p5---------4h5p4----------x8----------
--------------10-------------9-------------7-------------5--------------------
-0-0-0-----------0-0-0---------0-0-0---------0-0-0----------------------------
------------------------------------------------------------------------------
 Guitar 1[clean(play only on 5th & 6th times)]*arpeggiate chord high to low   
[ Tab from: http://www.guitartabs.cc/tabs/i/iron_maiden/dream_of_mirrors_tab_ver_2.html ]
--0---------------------------------------------------------------------------
--0---------------------------------------------------------------------------
--0---------------------------------------------------------------------------
--2---------------------------------------------------------------------------
------------------------------------------------------------------------------
------------------------------------------------------------------------------
 Pre-Chorus: Guitar 3                                                         

------------------------------------------------------------------------------
------------------------------------------------------------------------------
----------------------7-------7-------------------------7-------7-------------
-----3-------3------7---7---7---7------3-------3------7---7---7---7-----------
---3---3---3---3--5-------5----------3---3---3---3--5-------5-----------------
-1-------1-------------------------1-------1----------------------------------
 Guitar 1 *arpeggiate as before                                               

--0--------------------------------0------------------------------------------
--0--------------------------------0------------------------------------------
--0--------------------------------0------------------------------------------
--2--------------------------------2------------------------------------------
--3--------------------------------3------------------------------------------
------------------------------------------------------------------------------
 Guitar 3 (continued)                                                         

------------------------------------------------------------------------------
------------------------------------------------------------------------------
----------------------7-------7-----------------------------------------------
-----3-------3------7---7---7---7------3-------3---------5---5---5------------
---3---3---3---3--5-------5----------3---3---3---3-----5---5---5---5----------
-1-------1-------------------------1-------1---------3------------------------
 Interlude: Guitar 3                                                          

------------------------------------------------------------------------------
---------1---0------------------------------1---0-----------------------------
-----2---------------0------0-----------2---------------0------0-------x2-----
---2---2---2---2---2------0---0-------2---2---2---2---2------0---0------------
-0---------------3------------------0---------------3-------------------------
-----------------------3----------------------------------3-------------------
 Pre-Chorus: Guitar 3(still clean)*see verse 1 for verse 2 info.              

------------------------------------------------------------------------------
------------------------------------------------------------------------------
----------------------7-------7-------------------------7-------7-------------
-----3-------3------7---7---7---7------3-------3------7---7---7---7-----------
---3---3---3---3--5-------5----------3---3---3---3--5-------5-----------------
-1-------1-------------------------1-------1----------------------------------
 Guitars 1&2(now distorted)                                                   

------------------------------------------------------------------------------
------------------------------------------------------------------------------
------------------7---------------------------------7-------------------------
-3----------------7----------------3----------------7-------------------------
-3----------------5----------------3----------------5-------------------------
-1---------------------------------1------------------------------------------
 Guitar 3(continued) *distortion is turned on at the G5 chords!               

------------------------------------------------------------------------------
------------------------------------------------------------------------------
----------------------7-------7-----------------------------------------------
-----3-------3------7---7---7---7------3-------3----5-5-5-5-5-5-5-5-----------
---3---3---3---3--5-------5----------3---3---3---3--5-5-5-5-5-5-5-5-----------
-1-------1-------------------------1-------1--------3-3-3-3-3-3-3-3-----------
 Guitars 1&2 (continued)                                                      

------------------------------------------------------------------------------
------------------------------------------------------------------------------
------------------7-----------------------------------------------------------
-3----------------7----------------3----------------5-5-5-5-5-5-5-5-----------
-3----------------5----------------3----------------5-5-5-5-5-5-5-5-----------
-1---------------------------------1----------------3-3-3-3-3-3-3-3-----------
  Chorus: Guitars 1,2, and 3 (all distorted)                                  

-----------------------------------------|------------------------------------
-----------------------------------------|------------------------------------
-2-2-2-2-2-2-2-2----------------------x3-|------------------------------------
-2-2-2-2-2-2-2-2--3-3-3--5-5-5-5---------|-3-3-3-3-3-3-3-3--5-5-5-5-5-5-5-5---
-0-0-0-0-0-0-0-0--3-3-3--5-5-5-5---------|-3-3-3-3-3-3-3-3--5-5-5-5-5-5-5-5---
------------------1-1-1--3-3-3-3---------|-1-1-1-1-1-1-1-1--3-3-3-3-3-3-3-3---
 Interlude: Gtr's. 3&4(clean)                                                 

------------------------------------------------------------------------------
---------1---0----------------------------1---0-------------------------------
-----2---------------0------0---------2---------------0------0-------x2-------
---2---2---2---2---2------0---0-----2---2---2---2---2------0---0--------------
-0---------------3----------------0---------------3---------------------------
-----------------------3--------------------------------3---------------------
 Guitars 3&4(still distorted)*this is only played the first time(let ring)    

------------------------------------------------------------------------------
------------------------------------------------------------------------------
-2----------------------------------------------------------------------------
-2----------------------------------------------------------------------------
-0----------------------------------------------------------------------------
------------------------------------------------------------------------------
 Pre-Chorus: Guitars 1,2,&3 (all dist.)*see verse 1 for verse 3 info.         

------------------------------------------------------------------------------
------------------------------------------------------------------------------
------------------7-7-7-7-7-7-7-7-------------------7-7-7-7-7-7-7-7-----------
-3-3-3-3-3-3-3-3--7-7-7-7-7-7-7-7--3-3-3-3-3-3-3-3--7-7-7-7-7-7-7-7-----------
-3-3-3-3-3-3-3-3--5-5-5-5-5-5-5-5--3-3-3-3-3-3-3-3--5-5-5-5-5-5-5-5-----------
-1-1-1-1-1-1-1-1-------------------1-1-1-1-1-1-1-1----------------------------
 Guitars 1,2,&3 (continued)                                                   

------------------------------------------------------------------------------
------------------------------------------------------------------------------
------------------7-7-7-7-7-7-7-7---------------------------------------------
-3-3-3-3-3-3-3-3--7-7-7-7-7-7-7-7--3-3-3-3-3-3-3-3--5-5-5-5-5-5-5-5-----------
-3-3-3-3-3-3-3-3--5-5-5-5-5-5-5-5--3-3-3-3-3-3-3-3--5-5-5-5-5-5-5-5-----------
-1-1-1-1-1-1-1-1-------------------1-1-1-1-1-1-1-1--3-3-3-3-3-3-3-3-----------
 Chorus: Guitars 1,2,&3 (still distorted)                                     

---------------------------------------|--------------------------------------
---------------------------------------|--------------------------------------
-2-2-2-2-2-2-2-2---------------------x3|--------------------------------------
-2-2-2-2-2-2-2-2--3-3-3--5--5-5-5------|--3-3-3-3-3-3-3-3--5-5-5-5-5-5-5-5----
-0-0-0-0-0-0-0-0--3-3-3--5--5-5-5------|--3-3-3-3-3-3-3-3--5-5-5-5-5-5-5-5----
------------------1-1-1--3--3-3-3------|--1-1-1-1-1-1-1-1--3-3-3-3-3-3-3-3----
 Harmony 1: Guitars 1&2   *play this harmony twice                            

------------------------------------------------------------------------------
------------------------------------------------------------------------------
------------------------------------------------------------------------------
-9h10p9p7-9-9-7---7--9h10p9p7-9-9-7---7--7h8p7p5-7-7-5---5--7h8p7p5-7-7-5---5-
----------------7-------------------7------------------5------------------5---
------------------------------------------------------------------------------
 Guitar 3                                                                     

-7h8p7p5--7-7-5---5--7h8p7p5--7-7-5---5--5h6p5p3-5-5-3---3--5h6p5p3-3-3-3---3-
----------------5-------------------5------------------3------------------3---
------------------------------------------------------------------------------
------------------------------------------------------------------------------
------------------------------------------------------------------------------
------------------------------------------------------------------------------
 Bridge                                                                       


Back

Comments