Iron Maiden - Die With Your Boots On Chords & Tabs

 

Die With Your Boots On Chords & Tabs

Iron Maiden Chords & Tabs

Version: 2 Type: Tab 0 ratings
1 star 2 stars 3 stars 4 stars 5 stars
comments

Die With Your Boots On Tab

   
Die With Your Boots On
by Iron Maiden
written by Smith, Harris and Dickinson 
Off "Piece of mind"
Tab by Kristian Klock

Chord used in song
| Em  | C-I | D-I | Em* |  G  |  C  |  F  |
|--0--|-----|-----|-----|-----|-----|-----|
|--0--|-----|-----|-----|-----|-----|-----|
|--0--|--0--|--0--|-----|-----|-----|-----|
|--2--|--2--|--0--|--9--|--12-|-----|-----|
|--2--|--3--|-----|--7--|--10-|--10-|--3--|
|--0--|-----|-----|-----|-----|---8-|--1--|

| Bb  | Bm  | Am  | G*  |  D  |   Em-I    |
|-----|-----|-----|-----|-----|-----------|
|-----|-----|-----|-----|-----|-----------|
|-----|-----|-----|-----|-----|-----------|
|--8--|--9--|--7--|-----|-----|-----------|
|--8--|--9--|--7--|--5--|--12-|-----14----|
|--6--|--7--|--5--|--3--|--10-|-----12----|

Intro
|-----------|---------------------|----------------------|
|-----------|---------------------|----------------------|
|--0--------|-----0-------0----0--|-----0-------0----0---|
|--2--------|--4--2----4--2----2--|--4--2----4--2----2---|
|--2--------|--2--2----2--2----2--|--2--2----2--2----3---|
|-----------|--0-------0----------|--0-------0-----------|

|------------------------|-----------------------|
|------------------------|----------0------------|
|-----0-------0----0-----|-----0----0--0----0----|
|--4--2----4--2----2-----|--4--2----2--2----0----|
|--3--3----3--3----3-----|--3--3-------3----0----|
|------------------------|-----------------------|

|------------------------|-----------------------|
|------------------------|----------0------------|
|-----0-------0----0-----|-----0----0--0----0----|
|--4--0----4--0----0-----|--4--0----0--0----2----|
|--0--0----0--0----0-----|--0--0-------0----2----|
|------------------------|-----------------------|

|------------------------|-----------------------|
|------------------------|----------0------------|
|-----0-------0----0-----|-----0----0--0----0----|
|--4--2----4--2----2-----|--4--2----2--2----2----|
|--2--2----2--2----2-----|--2--2-------2----3----|
|--0-------0-------------|--0--------------------|

|------------------------|-----------------------|
|------------------------|----------0------------|
|-----0-------0----0-----|-----0----0--0----0----|
|--4--2----4--2----2-----|--4--2----2--2----2----|
|--2--2----2--2----2-----|--2--2-------2----3----|
|--0-------0-------------|--0--------------------|

|------------------------|-----------------------|
|------------------------|----------0------------|
|-----0-------0----0-----|-----0----0--0----0----|
|--4--2----4--2----2-----|--4--2----2--2----0----|
|--3--3----3--3----3-----|--3--3-------3----0----|
|------------------------|-----------------------|

|------------------------|-----------------------|
|------------------------|----------0------------|
|-----0-------0----0-----|-----0----0--0----0----|
|--4--0----4--0----0-----|--4--0----0--0----2----|
|--0--0----0--0----0-----|--0--0-------0----2----|
|------------------------|-----------------------|
[ Tab from: http://www.guitartabs.cc/tabs/i/iron_maiden/die_with_your_boots_on_tab_ver_2.html ]
|------------------------|-----------------------|
|------------------------|----------0------------|
|-----0-------0----0-----|-----0----0--0---------|
|--4--2----4--2----2-----|--4--2----2--2---------|
|--2--2----2--2----2-----|--2--2-------2---------|
|--0-------0-------------|--0--------------------|
                                       Another

Em*             G         C                 G
prophet of disaster who says the ship is lost.

Em*                     G       C
Another prophet of disaster leaving you

               G
to count the cost.

Em*                 G        C     
   Taunting us with visions, aflicting us 

      G   Em*                   G       C
with fear predicting war for millions in the hope 
  G    F             
one appears.

Guitar Strum 1              
Bb     F                 C     Bm  Am  G
No point asking when it is.                         

F  Bb          F                G  F  G  F  G  F  G  Am  Bb
   No point asking who's to go.                          No

         F                 C    Bm Am G  F
point asking what's the game

Bb          F                   G  F  G  F  G  F   G  
No point asking who's to blame.               'Cos if you're 

Bb      
gonna die  (if you're gonna die)  (if you're gonna die)
     
                  C
If you're gonna die   (if you're gonna die)

                  D
If you're gonna die    If you're gonna

Guitar Strum 2
Em-I    B    D     Am                             C
die,         die   with your boots on, if you're gonna

  G   C    D
try, well stick around, gonna cry

 Em-I  B  D    Am                   C        G  C          
                          *To Coda* (go to Coda on repeat)
         just move along, if you're gonna die   you're

 ____________1.__   ___2._______________________
|  D             | |   D        Em*                 G 
 gonna die, gonna |  gonna die, Thirteen the beast is rissing  

    C                  G    Em*                         G
the french-man did surmise.    Thru eart-quakes and starvation

C                      G    Em*                         G    
Pour from the eastern sands  But the truth of all predictions

C                     G   Am  Bb
is allways in your hands.    No

*Coda*
   C                                          Em
|--------------------------|----------------------|
|--------------------------|----------------------|
|--------------------------|----------------------|
|---------------------2----|--0-------------------|
|--------------------------|----2--0--------------|
|--------------------------|----------3--2--0-----|
 gonna die,                                   die.

Kristian Klock 20.08-1998
Comments