Iron Maiden - Die With Your Boots On Chords & Tabs

 

Die With Your Boots On Chords & Tabs

Iron Maiden Chords & Tabs

Version: 1 Type: Tab 0 ratings
1 star 2 stars 3 stars 4 stars 5 stars
comments

Die With Your Boots On Tab

   
Iron maiden
Die with your boots on

Gtr I (E A D G B E) - 'Distortion I'
Gtr II (E A D G B E) - 'Distortion II'
Gtr III (E A D G B E) - 'Lead'
Gtr IV (E A D G B E) - 'Distortion (Rhythm)'

 Intro
  Q=160
  (Em)                              (C)                               (D)
 1/8 4/4
  Gtr I
       ~~~              ~~~              ~~~              ~~~
|---|----------------|----------------|----------------|-----------------|
|---|----------------|----------------|----------------|-----------------|
|---|----------------|---------4------|----------------|---------4-------|
|-5-|-(5)--5--4-5--5-|-(5)--5----5--5-|-(5)--5--4-5--5-|-(5)--5----5--5--|
|---|----------------|----------------|----------------|-----------------|
|---|----------------|----------------|----------------|-----------------|
|
| Gtr II
|      ~~~              ~~~              ~~~              ~~~
|---|----------------|----------------|----------------|-----------------|
|---|----------------|----------------|----------------|-----------------|
|---|----------------|----------------|----------------|-----------------|
|---|----------------|---------5------|----------------|---------5-------|
|-7-|-(7)--7--5-7--7-|-(7)--7----7--7-|-(7)--7--5-7--7-|-(7)--7----7--7--|
|---|----------------|----------------|----------------|-----------------|


                                (Em)
   ~~~              ~~~              ~~~              ~~~
|----------------|----------------|----------------|----------------|
|----------------|----------------|----------------|----------------|
|----------------|---------4------|----------------|---------4------|
|-(5)--5--4-5--5-|-(5)--5----5--5-|-(5)--5--4-5--5-|-(5)--5----5--5-|
|----------------|----------------|----------------|----------------|
|----------------|----------------|----------------|----------------|
|
|  ~~~              ~~~              ~~~              ~~~
|----------------|----------------|----------------|----------------|
|----------------|----------------|----------------|----------------|
|----------------|----------------|----------------|----------------|
|----------------|---------5------|----------------|---------5------|
|-(7)--7--5-7--7-|-(7)--7----7--7-|-(7)--7--5-7--7-|-(7)--7----7--7-|
|----------------|----------------|----------------|----------------|


  Q=170
                                (C)                               (D)
   ~~~              ~~~              ~~~              ~~~
|----------------|----------------|----------------|----------------|
|----------------|----------------|----------------|----------------|
|----------------|---------4------|----------------|---------4------|
|-(5)--5--4-5--5-|-(5)--5----5--5-|-(5)--5--4-5--5-|-(5)--5----5--5-|
|----------------|----------------|----------------|----------------|
|----------------|----------------|----------------|----------------|
|
|  ~~~              ~~~              ~~~              ~~~
|----------------|----------------|----------------|----------------|
|----------------|----------------|----------------|----------------|
|----------------|----------------|----------------|----------------|
|----------------|---------5------|----------------|---------5------|
|-(7)--7--5-7--7-|-(7)--7----7--7-|-(7)--7--5-7--7-|-(7)--7----7--7-|
|----------------|----------------|----------------|----------------|


                                (Em)                              E5
   ~~~              ~~~              ~~~              ~~~
|----------------|----------------|----------------|----------------|
|----------------|----------------|----------------|----------------|
|----------------|---------4------|----------------|---------4----9-|
|-(5)--5--4-5--5-|-(5)--5----5--5-|-(5)--5--4-5--5-|-(5)--5----5--9-|
|----------------|----------------|----------------|--------------7-|
|----------------|----------------|----------------|----------------|
|
|  ~~~              ~~~              ~~~              ~~~
|----------------|----------------|----------------|----------------|
|----------------|----------------|----------------|----------------|
|----------------|----------------|----------------|--------------4-|
|----------------|---------5------|----------------|---------5----2-|
|-(7)--7--5-7--7-|-(7)--7----7--7-|-(7)--7--5-7--7-|-(7)--7----7--2-|
|----------------|----------------|----------------|----------------|


 Verse 1  0:24
            G5              C5              G5              E5
|--------------|---------------|---------------|--------------|
|--------------|---------------|---------------|--------------|
|-(9)-------12-|-(12)----------|------------12-|-(12)-------9-|
|-(9)-------12-|-(12)-------10-|-(10)-------12-|-(12)-------9-|
|-(7)-------10-|-(10)-------10-|-(10)-------10-|-(10)-------7-|
|--------------|-------------8-|--(8)----------|--------------|
|
|--------------|---------------|---------------|--------------|
|--------------|---------------|---------------|--------------|
|-(4)--------7-|--(7)--------5-|--(5)--------7-|--(7)-------4-|
|-(2)--------5-|--(5)--------5-|--(5)--------5-|--(5)-------2-|
|-(2)--------5-|--(5)--------3-|--(3)--------5-|--(5)-------2-|
|--------------|---------------|---------------|--------------|


            G5              C5              G5              E5
|--------------|---------------|---------------|--------------|
|--------------|---------------|---------------|--------------|
|-(9)-------12-|-(12)----------|------------12-|-(12)-------9-|
|-(9)-------12-|-(12)-------10-|-(10)-------12-|-(12)-------9-|
|-(7)-------10-|-(10)-------10-|-(10)-------10-|-(10)-------7-|
|--------------|-------------8-|--(8)----------|--------------|
|
|--------------|---------------|---------------|--------------|
|--------------|---------------|---------------|--------------|
|-(4)--------7-|--(7)--------5-|--(5)--------7-|--(7)-------4-|
|-(2)--------5-|--(5)--------5-|--(5)--------5-|--(5)-------2-|
|-(2)--------5-|--(5)--------3-|--(3)--------5-|--(5)-------2-|
|--------------|---------------|---------------|--------------|


            G5              C5              G5              E5
|--------------|---------------|---------------|--------------|
|--------------|---------------|---------------|--------------|
|-(9)-------12-|-(12)----------|------------12-|-(12)-------9-|
|-(9)-------12-|-(12)-------10-|-(10)-------12-|-(12)-------9-|
|-(7)-------10-|-(10)-------10-|-(10)-------10-|-(10)-------7-|
|--------------|-------------8-|--(8)----------|--------------|
|
|--------------|---------------|---------------|--------------|
|--------------|---------------|---------------|--------------|
|-(4)--------7-|--(7)--------5-|--(5)--------7-|--(7)-------4-|
|-(2)--------5-|--(5)--------5-|--(5)--------5-|--(5)-------2-|
|-(2)--------5-|--(5)--------3-|--(3)--------5-|--(5)-------2-|
|--------------|---------------|---------------|--------------|


            G5              C5              G5                F5 Bb5
|--------------|---------------|---------------|-------------------|
|--------------|---------------|---------------|-------------------|
|-(9)-------12-|-(12)----------|------------12-|-(12)----(12)----3-|
|-(9)-------12-|-(12)-------10-|-(10)-------12-|-(12)----(12)-7--3-|
|-(7)-------10-|-(10)-------10-|-(10)-------10-|-(10)----(10)-8--1-|
|--------------|-------------8-|--(8)----------|-------------------|
|
|--------------|---------------|---------------|-------------------|
|--------------|---------------|---------------|-------------------|
|-(4)--------7-|--(7)--------5-|--(5)--------7-|--(7)-----(7)----3-|
|-(2)--------5-|--(5)--------5-|--(5)--------5-|--(5)-----(5)-3--3-|
|-(2)--------5-|--(5)--------3-|--(3)--------5-|--(5)-----(5)-3--1-|
|--------------|---------------|---------------|--------------1----|


 Bridge 0:46
                 F5                  C5                  G5              F  Bb5
  Gtr I
                         PM--|
|------------------|-------------------|-------------------|-------------------|
|------------------|-------------------|-------------------|-------------------|
|-(3)-3-3---3-3----|-----------------5-|-(5)---------------|-------------2--3--|
|-(3)-3-3---3-3--3-|-(3)-------------5-|-(5)-5-5-5-5-5---5-|-(5)---------3--3--|
|-(1)-1-1---1-1--3-|-(3)-------3-3-3-3-|-(3)-3-3-3-3-2-0-5-|-(5)-5-5-5-5-3--1--|
|----------------1-|-(1)-1-1-1-1-1-1---|-----------------3-|-(3)-3-3-3-3-1-----|
|
| Gtr II
|------------------|-------------------|-------------------|-------------------|
|------------------|-------------------|-------------------|-------------------|
|------------------|-----------------5-|-(5)-------------0-|-(0)-0-0---0----3--|
|-(3)-3-3-3-3-3--3-|-(3)-------------5-|-(5)-5-5-5-5-5-5-0-|-(0)-0-0---0-3--3--|
|-(1)-1-1-1-1-1--3-|-(3)-3-3-3-3-3-3-3-|-(3)-3-3-3-3-2-0---|-------------0--1--|
|----------------1-|-(1)-1-1-1-1-1-1---|-------------------|-------------------|


                  F5
                          PM--|
|-------------------|-------------------|
|-------------------|-------------------|
|-(3)-3-3---3-3-----|-------------------|
|-(3)-3-3---3-3---3-|-(3)-------------3-|
|-(1)-1-1---1-1-0-3-|-(3)-------3-3-3-3-|
|-----------------1-|-(1)-1-1-1-1-1-1-1-|
|
|-------------------|-------------------|
|-------------------|-------------------|
|-------------------|-------------------|
|-(3)-3-3-3-3-3---3-|-(3)---------------|
|-(1)-1-1-1-1-1---3-|-(3)-3-3-3-3-3-3-3-|
|-----------------1-|-(1)-1-1-1-1-1-1-1-|


          G5          F5          G5      F/ABb5
            PM------|
|-----------------------|-----------------------|
|-----------------------|-----------------------|
|-----------------------|--------------------3--|
|-(3)-(3)s5-----------3-|-(3)-(3)s5-------7--3--|
|-(3)-(3)s5-5-5-5-5-5-3-|-(3)-(3)s5-5-5-5-8--1--|
|-(1)-(1)s3-3-3-3-3-3-1-|-(1)-(1)s3-3-3-3-5-----|
|
|           PM------|
|-----------------------|-----------------------|
|-----------------------|-----------------------|
|-----------------------|--------------------3--|
|-----------------------|-----------------5--3--|
|-(3)-(3)s5-5-5-5-5-5-3-|-(3)-(3)s5-5-5-5-5--1--|
|-(1)-(1)s3-3-3-3-3-3-1-|-(1)-(1)s3-3-3-3-------|


                  F5                  C5
      PM--------|         PM--|
|-------------------|-------------------|
|-------------------|-------------------|
|-(3)-3-3-3-3-3-3---|-----------------5-|
|-(3)-3-3-3-3-3-3-3-|-(3)-------------5-|
|-(1)-1-1-1-1-1-1-3-|-(3)-------3-3-3-3-|
|-----------------1-|-(1)-1-1-1-1-1-1---|
|
|-------------------|-------------------|
|-------------------|-------------------|
|-------------------|-----------------5-|
|-(3)-3-3-3-3-3---3-|-(3)-------------5-|
|-(1)-1-1-1-1-1---3-|-(3)-3-3-3-3-3-3-3-|
|-----------------1-|-(1)-1-1-1-1-1-1---|


                  G5              F  Bb5
|-------------------|-------------------|
|-------------------|-------------------|
|-(5)---------------|-------------2--3--|
|-(5)-5-5-5-5-5---5-|-(5)---------3--3--|
|-(3)-3-3-3-3-2-0-5-|-(5)-5-5-5-5-3--1--|
|-----------------3-|-(3)-3-3-3-3-1-----|
|
|-------------------|-------------------|
|-------------------|-------------------|
|-(5)-------------0-|-(0)-0-0---0----3--|
|-(5)-5-5-5-5-5-5-0-|-(0)-0-0---0-3--3--|
|-(3)-3-3-3-3-2-0---|-------------0--1--|
|-------------------|-------------------|


                  F5
                          PM--|
|-------------------|-------------------|
|-------------------|-------------------|
|-(3)-3-3---3-3-----|-------------------|
|-(3)-3-3---3-3---3-|-(3)-------------3-|
|-(1)-1-1---1-1-0-3-|-(3)-------3-3-3-3-|
|-----------------1-|-(1)-1-1-1-1-1-1-1-|
|
|-------------------|-------------------|
|-------------------|-------------------|
|-------------------|-------------------|
|-(3)-3-3-3-3-3---3-|-(3)---------------|
|-(1)-1-1-1-1-1---3-|-(3)-3-3-3-3-3-3-3-|
|-----------------1-|-(1)-1-1-1-1-1-1-1-|


          G5          F5                  F/ABb5
            PM------|
|-----------------------|-----------------------|
|-----------------------|-----------------------|
|-----------------------|--------------------3--|
|-(3)-(3)s5-----------3-|-(3)-(3)s5-------7--3--|
|-(3)-(3)s5-5-5-5-5-5-3-|-(3)-(3)s5-5-5-5-8--1--|
|-(1)-(1)s3-3-3-3-3-3-1-|-(1)-(1)s3-3-3-3-5-----|
|
|           PM------|
|-----------------------|-----------------------|
|-----------------------|-----------------------|
|-----------------------|--------------------3--|
|-----------------------|-----------------5--3--|
|-(3)-(3)s5-5-5-5-5-5-3-|-(3)-(3)s5-5-5-5-5--1--|
|-(1)-(1)s3-3-3-3-3-3-1-|-(1)-(1)s3-3-3-3-------|


                                                                            C5
      PM--------------------------|         PM--------------------|
|-------------------|-----------------|-------------------|--------------------|
|-------------------|-----------------|-------------------|--------------------|
|-(3)-3-3-3-3-3-3-3-|-3-3-3-3-3-3-3-3-|-(3)-3-3-3-3-3-3-3-|-3-3-3-3-3-3-(3)-5--|
|-(3)-3-3-3-3-3-3-3-|-3-3-3-3-3-3-3-3-|-(3)-3-3-3-3-3-3-3-|-3-3-3-3-3-3-(3)-5--|
|-(1)-1-1-1-1-1-1-1-|-1-1-1-1-1-1-1-1-|-(1)-1-1-1-1-1-1-1-|-1-1-1-1-1-1-(1)-3--|
|-------------------|-----------------|-------------------|--------------------|
|
|     PM--------------------------|         PM--------------------|
|-------------------|-----------------|-------------------|--------------------|
|-------------------|-----------------|-------------------|--------------------|
|-(3)-3-3-3-3-3-3-3-|-3-3-3-3-3-3-3-3-|-(3)-3-3-3-3-3-3-3-|-3-3-3-3-3-------5--|
|-(3)-3-3-3-3-3-3-3-|-3-3-3-3-3-3-3-3-|-(3)-3-3-3-3-3-3-3-|-3-3-3-3-3-3-(3)-5--|
|-(1)-1-1-1-1-1-1-1-|-1-1-1-1-1-1-1-1-|-(1)-1-1-1-1-1-1-1-|-1-1-1-1-1-0-(0)-3--|
|-------------------|-----------------|-------------------|--------------------|


                                    D5
      PM--------------------------|
|-------------------|-----------------|-------------------|------------------|
|-------------------|-----------------|-------------------|------------------|
|-(5)-5-5-5-5-5-5-5-|-5-5-5-5-5-5-5-7-|-(7)---------------|------------------|
|-(5)-5-5-5-5-5-5-5-|-5-5-5-5-5-5-5-7-|-(7)-x-x-x-x-x-x-x-|-7-7-7-7-7-7-7-7--|
|-(3)-3-3-3-3-3-3-3-|-3-3-3-3-3-3-3-5-|-(5)-x-x-x-x-x-x-x-|-5-5-5-5-5-5-5-5--|
|-------------------|-----------------|-------------------|------------------|
|
|     PM--------------------------|
|-------------------|-----------------|-------------------|------------------|
|-------------------|-----------------|-------------------|------------------|
|-(5)-5-5-5-5-5-5-5-|-5-5-5-5-5-5-5-7-|-(7)---------------|------------------|
|-(5)-5-5-5-5-5-5-5-|-5-5-5-5-5-5-5-7-|-(7)-7-7-7-7-7-7-7-|-7-7-7-7-7-7-7-7--|
|-(3)-3-3-3-3-3-3-3-|-3-3-3-3-3-3-3-5-|-(5)-5-5-5-5-5-5-5-|-5-5-5-5-5-5-5-5--|
|-------------------|-----------------|-------------------|------------------|


 Chorus 1:20
  E5      B5    D5    A5                 C5  G5   C5      D5
  Gtrs I, II
  PM|                                PM|                     ~~~
|-----------------|----------------|----------------|-------------------|
|-----5---------3-|-x--------------|----------------|-------------------|
|-----4---4-----2-|-x-2-(2)--------|-----5--------5-|-(5)-7-(7)---------|
|-----2-x-4-x-x-0-|-x-2-(2)----2-2-|-----5-x-5----5-|-(5)-7-(7)---------|
|-----2-x-2-------|---0-(0)----0-0-|-0-0-----5--x---|-------------------|
|-0-0-------------|----------------|----------------|-------------3-2-0-|


        E5  B5    D5    A5                 C5  G5   C5      D5
      PM                               PM|                     ~~~
|-------------------|----------------|----------------|-------------------|
|-------5---------3-|-x--------------|----------------|-------------------|
|-------4---4-----2-|-x-2-(2)--------|-----5--------5-|-(5)-7-(7)---------|
|-------2-x-4-x-x-0-|-x-2-(2)----2-2-|-----5-x-5----5-|-(5)-7-(7)---------|
|-------2-x-2-------|---0-(0)----0-0-|-0-0-----5--x---|-------------------|
|-(0)-0-------------|----------------|----------------|-------------3-2-0-|


        E5  B5    D5    A5                 C5  G5   C5      D5
      PM                               PM|                     ~~~
|-------------------|----------------|----------------|-------------------|
|-------5---------3-|-x--------------|----------------|-------------------|
|-------4---4-----2-|-x-2-(2)--------|-----5--------5-|-(5)-7-(7)---------|
|-------2-x-4-x-x-0-|-x-2-(2)----2-2-|-----5-x-5----5-|-(5)-7-(7)---------|
|-------2-x-2-------|---0-(0)----0-0-|-0-0-----5--x---|-------------------|
|-(0)-0-------------|----------------|----------------|-------------3-2-0-|


        E5  B5    D5    A5                 C5  G5   C5      D5          E5
  Gtr I
      PM                               PM|                     ~~~
|-------------------|----------------|----------------|-------------------|
|-------5---------3-|-x--------------|----------------|-------------------|
|-------4---4-----2-|-x-2-(2)--------|-----5--------5-|-(5)-7-(7)-------9-|
|-------2-x-4-x-x-0-|-x-2-(2)----2-2-|-----5-x-5----5-|-(5)-7-(7)-------9-|
|-------2-x-2-------|---0-(0)----0-0-|-0-0-----5--x---|-----------------7-|
|-(0)-0-------------|----------------|----------------|-------------3-2---|
|
| Gtr II
|     PM                               PM|                     ~~~
|-------------------|----------------|----------------|-------------------|
|-------5---------3-|-x--------------|----------------|-------------------|
|-------4---4-----2-|-x-2-(2)--------|-----5--------5-|-(5)-7-(7)-------4-|
|-------2-x-4-x-x-0-|-x-2-(2)----2-2-|-----5-x-5----5-|-(5)-7-(7)-------2-|
|-------2-x-2-------|---0-(0)----0-0-|-0-0-----5--x---|-----------------2-|
|-(0)-0-------------|----------------|----------------|-------------3-2---|


 Verse 2  1:42
            G5              C5              G5              E5
|--------------|---------------|---------------|--------------|
|--------------|---------------|---------------|--------------|
|-(9)-------12-|-(12)----------|------------12-|-(12)-------9-|
|-(9)-------12-|-(12)-------10-|-(10)-------12-|-(12)-------9-|
|-(7)-------10-|-(10)-------10-|-(10)-------10-|-(10)-------7-|
|--------------|-------------8-|--(8)----------|--------------|
|
|--------------|---------------|---------------|--------------|
|--------------|---------------|---------------|--------------|
|-(4)--------7-|--(7)--------5-|--(5)--------7-|--(7)-------4-|
|-(2)--------5-|--(5)--------5-|--(5)--------5-|--(5)-------2-|
|-(2)--------5-|--(5)--------3-|--(3)--------5-|--(5)-------2-|
|--------------|---------------|---------------|--------------|


            G5              C5              G5              E5
|--------------|---------------|---------------|--------------|
|--------------|---------------|---------------|--------------|
|-(9)-------12-|-(12)----------|------------12-|-(12)-------9-|
|-(9)-------12-|-(12)-------10-|-(10)-------12-|-(12)-------9-|
|-(7)-------10-|-(10)-------10-|-(10)-------10-|-(10)-------7-|
|--------------|-------------8-|--(8)----------|--------------|
|
|--------------|---------------|---------------|--------------|
|--------------|---------------|---------------|--------------|
|-(4)--------7-|--(7)--------5-|--(5)--------7-|--(7)-------4-|
|-(2)--------5-|--(5)--------5-|--(5)--------5-|--(5)-------2-|
|-(2)--------5-|--(5)--------3-|--(3)--------5-|--(5)-------2-|
|--------------|---------------|---------------|--------------|


            G5              C5              G5              E5
|--------------|---------------|---------------|--------------|
|--------------|---------------|---------------|--------------|
|-(9)-------12-|-(12)----------|------------12-|-(12)-------9-|
|-(9)-------12-|-(12)-------10-|-(10)-------12-|-(12)-------9-|
|-(7)-------10-|-(10)-------10-|-(10)-------10-|-(10)-------7-|
|--------------|-------------8-|--(8)----------|--------------|
|
|--------------|---------------|---------------|--------------|
|--------------|---------------|---------------|--------------|
|-(4)--------7-|--(7)--------5-|--(5)--------7-|--(7)-------4-|
|-(2)--------5-|--(5)--------5-|--(5)--------5-|--(5)-------2-|
|-(2)--------5-|--(5)--------3-|--(3)--------5-|--(5)-------2-|
|--------------|---------------|---------------|--------------|


            G5              C5              G5                F5 Bb5
|--------------|---------------|---------------|-------------------|
|--------------|---------------|---------------|-------------------|
|-(9)-------12-|-(12)----------|------------12-|-(12)----(12)----3-|
|-(9)-------12-|-(12)-------10-|-(10)-------12-|-(12)----(12)-7--3-|
|-(7)-------10-|-(10)-------10-|-(10)-------10-|-(10)----(10)-8--1-|
|--------------|-------------8-|--(8)----------|-------------------|
|
|--------------|---------------|---------------|-------------------|
|--------------|---------------|---------------|-------------------|
|-(4)--------7-|--(7)--------5-|--(5)--------7-|--(7)-----(7)----3-|
|-(2)--------5-|--(5)--------5-|--(5)--------5-|--(5)-----(5)-3--3-|
|-(2)--------5-|--(5)--------3-|--(3)--------5-|--(5)-----(5)-3--1-|
|--------------|---------------|---------------|--------------1----|


 Bridge 2:05
  Q=172
                 F5                  C5                  G5              F  Bb5
                         PM--|
|------------------|-------------------|-------------------|-------------------|
|------------------|-------------------|-------------------|-------------------|
|-(3)-3-3---3-3----|-----------------5-|-(5)---------------|-------------2--3--|
|-(3)-3-3---3-3--3-|-(3)-------------5-|-(5)-5-5-5-5-5---5-|-(5)---------3--3--|
|-(1)-1-1---1-1--3-|-(3)-------3-3-3-3-|-(3)-3-3-3-3-2-0-5-|-(5)-5-5-5-5-3--1--|
|----------------1-|-(1)-1-1-1-1-1-1---|-----------------3-|-(3)-3-3-3-3-1-----|
|
|------------------|-------------------|-------------------|-------------------|
|------------------|-------------------|-------------------|-------------------|
|------------------|-----------------5-|-(5)-------------0-|-(0)-0-0---0----3--|
|-(3)-3-3-3-3-3--3-|-(3)-------------5-|-(5)-5-5-5-5-5-5-0-|-(0)-0-0---0-3--3--|
|-(1)-1-1-1-1-1--3-|-(3)-3-3-3-3-3-3-3-|-(3)-3-3-3-3-2-0---|-------------0--1--|
|----------------1-|-(1)-1-1-1-1-1-1---|-------------------|-------------------|


                  F5
                          PM--|
|-------------------|-------------------|
|-------------------|-------------------|
|-(3)-3-3---3-3-----|-------------------|
|-(3)-3-3---3-3---3-|-(3)-------------3-|
|-(1)-1-1---1-1-0-3-|-(3)-------3-3-3-3-|
|-----------------1-|-(1)-1-1-1-1-1-1-1-|
|
|-------------------|-------------------|
|-------------------|-------------------|
|-------------------|-------------------|
|-(3)-3-3-3-3-3---3-|-(3)---------------|
|-(1)-1-1-1-1-1---3-|-(3)-3-3-3-3-3-3-3-|
|-----------------1-|-(1)-1-1-1-1-1-1-1-|


          G5          F5          G5      F/ABb5
            PM------|
|-----------------------|-----------------------|
|-----------------------|-----------------------|
|-----------------------|--------------------3--|
|-(3)-(3)s5-----------3-|-(3)-(3)s5-------7--3--|
|-(3)-(3)s5-5-5-5-5-5-3-|-(3)-(3)s5-5-5-5-8--1--|
|-(1)-(1)s3-3-3-3-3-3-1-|-(1)-(1)s3-3-3-3-5-----|
|
|           PM------|
|-----------------------|-----------------------|
|-----------------------|-----------------------|
|-----------------------|--------------------3--|
|-----------------------|-----------------5--3--|
|-(3)-(3)s5-5-5-5-5-5-3-|-(3)-(3)s5-5-5-5-5--1--|
|-(1)-(1)s3-3-3-3-3-3-1-|-(1)-(1)s3-3-3-3-------|


                  F5                  C5
      PM--------|         PM--|
|-------------------|-------------------|
|-------------------|-------------------|
|-(3)-3-3-3-3-3-3---|-----------------5-|
|-(3)-3-3-3-3-3-3-3-|-(3)-------------5-|
|-(1)-1-1-1-1-1-1-3-|-(3)-------3-3-3-3-|
|-----------------1-|-(1)-1-1-1-1-1-1---|
|
|-------------------|-------------------|
|-------------------|-------------------|
|-------------------|-----------------5-|
|-(3)-3-3-3-3-3---3-|-(3)-------------5-|
|-(1)-1-1-1-1-1---3-|-(3)-3-3-3-3-3-3-3-|
|-----------------1-|-(1)-1-1-1-1-1-1---|


                  G5              F  Bb5
|-------------------|-------------------|
|-------------------|-------------------|
|-(5)---------------|-------------2--3--|
|-(5)-5-5-5-5-5---5-|-(5)---------3--3--|
|-(3)-3-3-3-3-2-0-5-|-(5)-5-5-5-5-3--1--|
|-----------------3-|-(3)-3-3-3-3-1-----|
|
|-------------------|-------------------|
|-------------------|-------------------|
|-(5)-------------0-|-(0)-0-0---0----3--|
|-(5)-5-5-5-5-5-5-0-|-(0)-0-0---0-3--3--|
|-(3)-3-3-3-3-2-0---|-------------0--1--|
|-------------------|-------------------|


                  F5
                          PM--|
|-------------------|-------------------|
|-------------------|-------------------|
|-(3)-3-3---3-3-----|-------------------|
|-(3)-3-3---3-3---3-|-(3)-------------3-|
|-(1)-1-1---1-1-0-3-|-(3)-------3-3-3-3-|
|-----------------1-|-(1)-1-1-1-1-1-1-1-|
|
|-------------------|-------------------|
|-------------------|-------------------|
|-------------------|-------------------|
|-(3)-3-3-3-3-3---3-|-(3)---------------|
|-(1)-1-1-1-1-1---3-|-(3)-3-3-3-3-3-3-3-|
|-----------------1-|-(1)-1-1-1-1-1-1-1-|


          G5          F5          G5      F/ABb5
            PM------|
|-----------------------|-----------------------|
|-----------------------|-----------------------|
|-----------------------|--------------------3--|
|-(3)-(3)s5-----------3-|-(3)-(3)s5-------7--3--|
|-(3)-(3)s5-5-5-5-5-5-3-|-(3)-(3)s5-5-5-5-8--1--|
|-(1)-(1)s3-3-3-3-3-3-1-|-(1)-(1)s3-3-3-3-5-----|
|
|           PM------|
|-----------------------|-----------------------|
|-----------------------|-----------------------|
|-----------------------|--------------------3--|
|-----------------------|-----------------5--3--|
|-(3)-(3)s5-5-5-5-5-5-3-|-(3)-(3)s5-5-5-5-5--1--|
|-(1)-(1)s3-3-3-3-3-3-1-|-(1)-(1)s3-3-3-3-------|


                                                                            C5
      PM--------------------------|         PM--------------------|
|-------------------|-----------------|-------------------|--------------------|
|-------------------|-----------------|-------------------|--------------------|
|-(3)-3-3-3-3-3-3-3-|-3-3-3-3-3-3-3-3-|-(3)-3-3-3-3-3-3-3-|-3-3-3-3-3-3-(3)-5--|
|-(3)-3-3-3-3-3-3-3-|-3-3-3-3-3-3-3-3-|-(3)-3-3-3-3-3-3-3-|-3-3-3-3-3-3-(3)-5--|
|-(1)-1-1-1-1-1-1-1-|-1-1-1-1-1-1-1-1-|-(1)-1-1-1-1-1-1-1-|-1-1-1-1-1-1-(1)-3--|
|-------------------|-----------------|-------------------|--------------------|
|
|     PM--------------------------|         PM--------------------|
|-------------------|-----------------|-------------------|--------------------|
|-------------------|-----------------|-------------------|--------------------|
|-(3)-3-3-3-3-3-3-3-|-3-3-3-3-3-3-3-3-|-(3)-3-3-3-3-3-3-3-|-3-3-3-3-3-------5--|
|-(3)-3-3-3-3-3-3-3-|-3-3-3-3-3-3-3-3-|-(3)-3-3-3-3-3-3-3-|-3-3-3-3-3-3-(3)-5--|
|-(1)-1-1-1-1-1-1-1-|-1-1-1-1-1-1-1-1-|-(1)-1-1-1-1-1-1-1-|-1-1-1-1-1-0-(0)-3--|
|-------------------|-----------------|-------------------|--------------------|


                                    D5
      PM--------------------------|
|-------------------|-----------------|-------------------|------------------|
|-------------------|-----------------|-------------------|------------------|
|-(5)-5-5-5-5-5-5-5-|-5-5-5-5-5-5-5-7-|-(7)---------------|------------------|
|-(5)-5-5-5-5-5-5-5-|-5-5-5-5-5-5-5-7-|-(7)-x-x-x-x-x-x-x-|-7-7-7-7-7-7-7-7--|
|-(3)-3-3-3-3-3-3-3-|-3-3-3-3-3-3-3-5-|-(5)-x-x-x-x-x-x-x-|-5-5-5-5-5-5-5-5--|
|-------------------|-----------------|-------------------|------------------|
|
|     PM--------------------------|
|-------------------|-----------------|-------------------|------------------|
|-------------------|-----------------|-------------------|------------------|
|-(5)-5-5-5-5-5-5-5-|-5-5-5-5-5-5-5-7-|-(7)---------------|------------------|
|-(5)-5-5-5-5-5-5-5-|-5-5-5-5-5-5-5-7-|-(7)-7-7-7-7-7-7-7-|-7-7-7-7-7-7-7-7--|
|-(3)-3-3-3-3-3-3-3-|-3-3-3-3-3-3-3-5-|-(5)-5-5-5-5-5-5-5-|-5-5-5-5-5-5-5-5--|
|-------------------|-----------------|-------------------|------------------|


 Chorus 2:38
  E5      B5    D5    A5                 C5  G5   C5      D5
  Gtrs I, II
  PM|                                PM|                     ~~~
|-----------------|----------------|----------------|-------------------|
|-----5---------3-|-x--------------|----------------|-------------------|
|-----4---4-----2-|-x-2-(2)--------|-----5--------5-|-(5)-7-(7)---------|
|-----2-x-4-x-x-0-|-x-2-(2)----2-2-|-----5-x-5----5-|-(5)-7-(7)---------|
|-----2-x-2-------|---0-(0)----0-0-|-0-0-----5--x---|-------------------|
|-0-0-------------|----------------|----------------|-------------3-2-0-|


        E5  B5    D5    A5                 C5  G5   C5      D5
      PM                               PM|                     ~~~
|-------------------|----------------|----------------|-------------------|
|-------5---------3-|-x--------------|----------------|-------------------|
|-------4---4-----2-|-x-2-(2)--------|-----5--------5-|-(5)-7-(7)---------|
|-------2-x-4-x-x-0-|-x-2-(2)----2-2-|-----5-x-5----5-|-(5)-7-(7)---------|
|-------2-x-2-------|---0-(0)----0-0-|-0-0-----5--x---|-------------------|
|-(0)-0-------------|----------------|----------------|-------------3-2-0-|


        E5  B5    D5    A5                 C5  G5   C5      D5
      PM                               PM|                     ~~~
|-------------------|----------------|----------------|-------------------|
|-------5---------3-|-x--------------|----------------|-------------------|
|-------4---4-----2-|-x-2-(2)--------|-----5--------5-|-(5)-7-(7)---------|
|-------2-x-4-x-x-0-|-x-2-(2)----2-2-|-----5-x-5----5-|-(5)-7-(7)---------|
|-------2-x-2-------|---0-(0)----0-0-|-0-0-----5--x---|-------------------|
|-(0)-0-------------|----------------|----------------|-------------3-2-0-|


        E5  B5    D5    A5                 C5  G5   C5      D5          A5
  Gtr III
|-------------------|----------------|----------------|-----------------12-|
|-------------------|----------------|----------------|--------------------|
|-------------------|----------------|----------------|--------------------|
|-------------------|----------------|----------------|--------------------|
|-------------------|----------------|----------------|--------------------|
|-------------------|----------------|----------------|--------------------|
|
| Gtrs I, II
|     PM                               PM|                     ~~~
|-------------------|----------------|----------------|--------------------|
|-------5---------3-|-x--------------|----------------|--------------------|
|-------4---4-----2-|-x-2-(2)--------|-----5--------5-|-(5)-7-(7)--------2-|
|-------2-x-4-x-x-0-|-x-2-(2)----2-2-|-----5-x-5----5-|-(5)-7-(7)--------2-|
|-------2-x-2-------|---0-(0)----0-0-|-0-0-----5--x---|------------------0-|
|-(0)-0-------------|----------------|----------------|-------------3-2----|


 Guitar Solo 1  3:00
  Q=174
                                    Bm7                                  C
                                                ~~~~~~~~~~~~
|-15--13-12h13p12--------------------------||------------------------------|
|-----------------15-13-12h13p12----15b17==||=(15)----(15)r----13-15b17====|
|--------------------------------14--------||---------------14-------------|
|------------------------------------------||------------------------------|
|------------------------------------------||------------------------------|
|------------------------------------------||------------------------------|
|
|------------------------------------------||------------------------------|
|------------------------------------------||------------------------------|
|-(2)--------------------------------2-----||--(2)-----------------------0-|
|-(2)--------------------------------0-----||--(0)-----------------------2-|
|-(0)--------------------------------2-----||--(2)-----------------------3-|
|------------------------------------------||------------------------------|


                                  D5                             A5
                                         ~~~~
|------------------------------------|---------------12h15p12----12h15p12---|
|-(15)-15-15-15-(15)r(15)-(15)-13-15-|-(15)----(15)\----------15------------|
|------------------------------------|--------------------------------------|
|------------------------------------|--------------------------------------|
|------------------------------------|--------------------------------------|
|------------------------------------|--------------------------------------|
|
|------------------------------------|--------------------------------------|
|------------------------------------|--------------------------------------|
|--(0)-----------------------------2-|--(2)-----------------------2---------|
|--(2)-----------------------------0-|--(0)-----------------------2---------|
|--(3)-------------------------------|----------------------------0---------|
|------------------------------------|--------------------------------------|

[ Tab from: http://www.guitartabs.cc/tabs/i/iron_maiden/die_with_your_boots_on_tab.html ]
                                                                  Bm7
|-15p=12----12h15p12-15p12----12h15p12-15p12----12h15p12-15p12----12h15p12-|
|--------15----------------15----------------15----------------15----------|
|--------------------------------------------------------------------------|
|--------------------------------------------------------------------------|
|--------------------------------------------------------------------------|
|--------------------------------------------------------------------------|
|
|--------------------------------------------------------------------------|
|--------------------------------------------------------------------------|
|-(2)--------------------------------------------------------------2-------|
|-(2)--------------------------------------------------------------0-------|
|-(0)--------------------------------------------------------------2-------|
|--------------------------------------------------------------------------|


                                                   C
|-----15p12-15p12-15p12-15p12----12h15p12-15p12----15p12--|
|-14--------------------------14----------------14--------|
|---------------------------------------------------------|
|---------------------------------------------------------|
|---------------------------------------------------------|
|---------------------------------------------------------|
|
|---------------------------------------------------------|
|---------------------------------------------------------|
|-(2)-----------------------------------------------0-----|
|-(0)-----------------------------------------------2-----|
|-(2)-----------------------------------------------3-----|
|---------------------------------------------------------|


                                                D5
|-15p=12----15p12-15p12----12h15p12-15p12----12h15b17==|
|--------14-------------14----------------13-----------|
|------------------------------------------------------|
|------------------------------------------------------|
|------------------------------------------------------|
|------------------------------------------------------|
|
|------------------------------------------------------|
|------------------------------------------------------|
|-(0)--------------------------------------------2-----|
|-(2)--------------------------------------------0-----|
|-(3)--------------------------------------------------|
|------------------------------------------------------|


                                 A5
|-(15)--(15)r(15)\-/15/-12--------------|
|-----------------------13-15p13h15p13--|
|---------------------------------------|
|---------------------------------------|
|---------------------------------------|
|---------------------------------------|
|
|---------------------------------------|
|---------------------------------------|
|--(2)----------------------------2-----|
|--(0)----------------------------2-----|
|---------------------------------0-----|
|---------------------------------------|


                                                   Bm7
|--------------------------------------------------------------|
|-15p=13h15p13h15-13p12h13p12h13p12h13p12h13p12h13----------10h|
|--------------------------------------------------------11----|
|-----------------------------------------------------12-------|
|--------------------------------------------------14----------|
|--------------------------------------------------------------|
|
|--------------------------------------------------------------|
|--------------------------------------------------------------|
|-(2)-----------------------------------------------2----------|
|-(2)-----------------------------------------------0----------|
|-(0)-----------------------------------------------2----------|
|--------------------------------------------------------------|


                                          C
|---------------------------------------------|
|-12p=10h12p10h12p10h12p10-8h10p8h10p8h10p8-5-|
|---------------------------------------------|
|---------------------------------------------|
|---------------------------------------------|
|---------------------------------------------|
|
|---------------------------------------------|
|---------------------------------------------|
|-(2)-------------------------------------0---|
|-(0)-------------------------------------2---|
|-(2)-------------------------------------3---|
|---------------------------------------------|


                                 D5                          A5
|------------------------------------|-----------------------------|
|-(5)-8p5h8p5h8p5--------------------|-----------------------------|
|-----------------7b9==(7)-(7)-7---7-|--7--7r(7)--/9-----/14-12-14-|
|------------------------------------|---------------10\-----------|
|------------------------------------|-----------------------------|
|------------------------------------|-----------------------------|
|
|------------------------------------|-----------------------------|
|------------------------------------|-----------------------------|
|-(0)----------------------------2---|-(2)--------------------2----|
|-(2)----------------------------0---|-(0)--------------------2----|
|-(3)--------------------------------|------------------------0----|
|------------------------------------|-----------------------------|


                                                Bm7                                   C
|---------------------------------------------------------|------------------/17/-----20b22==|
|--------------------------------17h18p17----17-17-20b22==|=(20)--(20)r(20)\-------17--------|
|--------------16h17p16----17h19----------19--------------|----------------------------------|
|-17h=19p17h19----------19--------------------------------|----------------------------------|
|---------------------------------------------------------|----------------------------------|
|---------------------------------------------------------|----------------------------------|
|
|---------------------------------------------------------|----------------------------------|
|---------------------------------------------------------|----------------------------------|
|-(2)--------------------------------------------2--------|--(2)-----------------------0-----|
|-(2)--------------------------------------------0--------|--(0)-----------------------2-----|
|-(0)--------------------------------------------2--------|--(2)-----------------------3-----|
|---------------------------------------------------------|----------------------------------|


                                  D5
                                                                   Gtr I
                                             ~~~~
|-20---(20)r20-20b22==(20)r-20-17--------|-------------------------------|
|---------------------------------20b22==|=(20)----(20)r(20)-(20)\-/10---|
|----------------------------------------|-------------------------------|
|----------------------------------------|-------------------------------|
|----------------------------------------|-------------------------------|
|----------------------------------------|-------------------------------|
|
|                                                                  Gtr II
|----------------------------------------|-------------------------------|
|----------------------------------------|-------------------------------|
|-(0)------------------------------2-----|--(2)--------------------------|
|-(2)------------------------------0-----|--(0)--------------------------|
|-(3)------------------------------------|--------------------------/7---|
|----------------------------------------|-------------------------------|


 Interlude 3:22
  Q=176
  (Am)                           (F)
  Gtr I
|----------------|-------------|---------------|-------------|
|-(10)---8-------|-------------|-/10---8-------|-------------|
|----------9---7-|-9----9-10-9-|---------9---7-|-9----9-10-9-|
|----------------|-------------|---------------|-------------|
|----------------|-------------|---------------|-------------|
|----------------|-------------|---------------|-------------|
|
|   ~~~~   ~       ~               ~~~   ~       ~
|----------------|-------------|---------------|-------------|
|----------------|-------------|---------------|-------------|
|----------------|-------------|---------------|-------------|
|----------------|-------------|---------------|-------------|
|--(7)---3-------|---------2-3-|--/7---3-------|---------2-3-|
|----------5---3-|-5----5------|---------5---3-|-5----5------|


  (G)                             (Am)
|---------------|---------------|-----------------|-------------------|
|-/10---8-------|--------8------|-----------------|---------------/10-|
|---------9---7-|-9----9---10-9-|-(9)--9-9-9--9-9-|--9---9-9-9--9-----|
|---------------|---------------|-----------------|-------------------|
|---------------|---------------|-----------------|-------------------|
|---------------|---------------|-----------------|-------------------|
|
|   ~~~   ~       ~
|---------------|---------------|-----------------|-------------------|
|---------------|---------------|-----------------|-------------------|
|---------------|---------------|-----------------|-------------------|
|---------------|-------------2-|-(2)-------------|-(2)---------------|
|--/7---3-------|--------3--2-0-|-(0)-------------|-(0)------------/7-|
|---------5---3-|-5----5--------|-----------------|-------------------|


                                 (F)
|----------------|-------------|---------------|-------------|
|-(10)---8-------|-------------|-/10---8-------|-------------|
|----------9---7-|-9----9-10-9-|---------9---7-|-9----9-10-9-|
|----------------|-------------|---------------|-------------|
|----------------|-------------|---------------|-------------|
|----------------|-------------|---------------|-------------|
|
|   ~~~~   ~       ~               ~~~   ~       ~
|----------------|-------------|---------------|-------------|
|----------------|-------------|---------------|-------------|
|----------------|-------------|---------------|-------------|
|----------------|-------------|---------------|-------------|
|--(7)---3-------|---------2-3-|--/7---3-------|---------2-3-|
|----------5---3-|-5----5------|---------5---3-|-5----5------|


  (G)                             (Am)                      A5
                                                            Gtrs I, II
                                           ~~~~~~~~~~~
|---------------|---------------|---------------|--------------|
|-/10---8-------|--------8------|---------------|--------------|
|---------9---7-|-9----9---10-9-|-(9)--9-9-9----|-(9)----------|
|---------------|---------------|---------------|--------------|
|---------------|---------------|---------------|-----------/7-|
|---------------|---------------|---------------|--------------|
|
|                                                           Gtr IV
|   ~~~   ~       ~
|---------------|---------------|---------------|--------------|
|---------------|---------------|---------------|--------------|
|---------------|---------------|---------------|--------------|
|---------------|-------------2-|-(2)-----------|-(2)--------2-|
|--/7---3-------|--------3--2-0-|-(0)-----------|-(0)--------0-|
|---------5---3-|-5----5--------|---------------|--------------|


                             C5        F5
   ~~~      ~         ~
|-------------------|--------------------|
|-------------------|--------------------|
|-------------------|--------------------|
|-------------------|--------------------|
|-(7)-----3---------|------------2---3---|
|-----------5-----3-|-5------5-----------|
|
|-------------------|--------------------|
|-------------------|--------------------|
|-------------------|--------------------|
|-(2)-2-2-------2---|-----2--5-5---5-----|
|-(0)-0-0---0-0-0---|-0-0-0--3-3---3---3-|
|-------------------|------------------1-|


                             C5        G5
   ~~~      ~         ~
|-------------------|--------------------|
|-------------------|--------------------|
|-------------------|--------------------|
|-------------------|--------------------|
|-/7------3---------|------------2---3---|
|-----------5-----3-|-5------5-----------|
|
|-------------------|--------------------|
|-------------------|--------------------|
|-------------------|--------------------|
|-------------------|--------5-5---5-----|
|-(3)-3-3---3-3-3---|-3-3-3--3-3---3---5-|
|-(1)-1-1---1-1-1---|-1-1-1------------3-|


  G                          C5    A5
   ~~~      ~         ~                                ~~~~~~~~~~~~~~~~~~~
|-------------------|----------------|-------------------|-------------------|
|-------------------|----------------|-------------------|-------------------|
|-------------------|----------------|-------------------|-------------------|
|-------------------|--------------2-|-(2)----------/7-5-|-(5)----------5----|
|-/7------3---------|----------3-2-0-|-(0)---------------|----------------/7-|
|-----------5-----3-|-5------5-------|-------------------|-------------------|
|
|-------------------|----------------|-------------------|-------------------|
|-------------------|----------------|-------------------|-------------------|
|-------------------|----------------|-------------------|-------------------|
|-------------------|--------5-5-5-2-|-(2)---2-------2---|-------2---------2-|
|-(5)-5-5-------5---|-----5--3-3-3-0-|-(0)-0-0--0-0--0---|--0--0-0--0-0-0--0-|
|-(3)-3-3---3-3-3---|-3-3-3----------|-------------------|-------------------|


                             C5        F5
   ~~~      ~         ~
|-------------------|--------------------|
|-------------------|--------------------|
|-------------------|--------------------|
|-------------------|--------------------|
|-(7)-----3---------|------------2---3---|
|-----------5-----3-|-5------5-----------|
|
|-------------------|--------------------|
|-------------------|--------------------|
|-------------------|--------------------|
|-(2)-2-2-------2---|-----2--5-5---5-----|
|-(0)-0-0---0-0-0---|-0-0-0--3-3---3---3-|
|-------------------|------------------1-|


  (F)                        C5        G5
   ~~~      ~         ~
|-------------------|--------------------|
|-------------------|--------------------|
|-------------------|--------------------|
|-------------------|--------------------|
|-/7------3---------|------------2---3---|
|-----------5-----3-|-5------5-----------|
|
|-------------------|--------------------|
|-------------------|--------------------|
|-------------------|--------------------|
|-------------------|--------5-5---5-----|
|-(3)-3-3---3-3-3---|-3-3-3--3-3---3---5-|
|-(1)-1-1---1-1-1---|-1-1-1------------3-|


                             C5    A5
   ~~~      ~         ~                    PM--------------------------|
|-------------------|----------------|-------------------|--------------------|
|-------------------|----------------|-------------------|--------------------|
|-------------------|----------------|-------------------|--------------------|
|-------------------|--------------2-|-(2)-2-2-2-2-2-2-2-|-2-2-2-2-2-2-2-2----|
|-/7------3---------|----------3-2-0-|-(0)-0-0-0-0-0-0-0-|-0-0-0-0-0-0-0-0----|
|-----------5-----3-|-5------5-------|-------------------|--------------------|
|
|                                                                        Gtr III
|-------------------|----------------|-------------------|--------------------|
|-------------------|----------------|-------------------|---------------8----|
|-------------------|----------------|-------------------|---------------7b9==|
|-------------------|--------5-5-5-2-|-(2)---2-------2---|-----2--------------|
|-(5)-5-5-------5---|-----5--3-3-3-0-|-(0)-0-0---0-0-0---|-0-0-0---0-0-0------|
|-(3)-3-3---3-3-3---|-3-3-3----------|-------------------|--------------------|


 Guitar Solo 2  4:06
  Q=177
                                                                    F5
  Gtr III
                                                          ~~~~~~
|--------------------------------------|----------------------------------|
|-(8)----8----(8)--8----(8)--8----(8)--|----------------------------8b10==|
|-(7)r---7b9==(7)r-7b9==(7)r-7b9==(7)r-|-7b9==(7)r(7)p5---5-(5)-----------|
|--------------------------------------|----------------7---------9-------|
|--------------------------------------|----------------------------------|
|--------------------------------------|----------------------------------|
|
| Gtrs I, II
|      PM-------------------------------------------------|
|--------------------------------------|----------------------------------|
|--------------------------------------|----------------------------------|
|--------------------------------------|----------------------------------|
|-(2)--2-2-----2---2-----2---2-----2---|-2-----2--------2-2---------------|
|-(0)--0-0-----0---0-----0---0-----0---|-0-----0--------0-0-/3--2-0-3-----|
|--------------------------------------|----------------------------1-----|


                                                    D5
                              ~~~~~~~~
|------5------------------------|-----------------------|
|-(8)r---8p5-----8p5------------|-----------------------|
|--------------7-----8p7p5---/7-|-(7)-------(7)---------|
|--------------------------7----|-----------------------|
|-------------------------------|---------------8-7-5---|
|-------------------------------|-----------------------|
|
|      PM---------------------------------|
|-------------------------------|-----------------------|
|-------------------------------|-----------------------|
|-------------------------------|-------------------7---|
|-------------------------------|-------------------7---|
|-(3)--3-3---3---3---3---3----3-|--3--3-3-3-/5--3-2-5---|
|-(1)--1-1---1---1---1---1----1-|--1--1-1-1-------------|


                                                 A5
                ~~~~                   ~~~~~~
|------------------------|---------------------------|
|------------------------|-----------------------/10-|
|----------------------9-|-(9)-10p9------------------|
|---------/12-(12)-------|----------12-7-(7)---------|
|-(5)-7-8----------------|---------------------------|
|------------------------|---------------------------|
|
|     PM---------------------------------------|
|------------------------|---------------------------|
|------------------------|---------------------------|
|-(7)-7-7---7---7--7-7-7-|--7---7----7-7--7--7-7---2-|
|-(7)-7-7---7---7--7-7-7-|--7---7----7-7--7--7-7---2-|
|-(5)--------------------|-------------------------0-|
|------------------------|---------------------------|


           Bm7           C6sus2             D5        A5
            ~~~~~~~       ~~~~~~~~~          ~~~~~~~
|---------------------------|-------------------------20b22==|
|-(10)-8---12-(12)-10----13-|-(13)-13p12p10-15-(15)----------|
|--------9------------12----|--------------------------------|
|---------------------------|--------------------------------|
|---------------------------|--------------------------------|
|---------------------------|--------------------------------|
|
|---------------------------|--------------------------------|
|---------------------------|--------------------------------|
|--(2)------2--(2)--------2-|--(2)-----------2--(2)----------|
|--(2)------0--(0)--------0-|--(0)-----------0--(0)----2-----|
|--(0)------2--(2)--------3-|--(3)-----------5--(5)----0-----|
|---------------------------|--------------------------------|


                                                                                   F5
                                                  ~~~~~~~~~
|-(20)r---20b22==(20)r-20b22==(20)r-20b22==(20)r-20-|-(20)-------20-19-17-20-19-17-20-19-|
|---------------------------------------------------|------------------------------------|
|---------------------------------------------------|------------------------------------|
|---------------------------------------------------|------------------------------------|
|---------------------------------------------------|------------------------------------|
|---------------------------------------------------|------------------------------------|
|
|       PM-----------------------------------------------------|
|---------------------------------------------------|------------------------------------|
|---------------------------------------------------|------------------------------------|
|---------------------------------------------------|------------------------------------|
|--(2)--2--2-------2----2-------2----2------------2-|---2--2-2-2-------------------------|
|--(0)--0--0-------0----0-------0----0------------0-|---0--0-0-0-/3-----5-----3-----3----|
|---------------------------------------------------|-------------------------------1----|


                                                                      D5
                                                 ~~~~
|-17--20-19-17-20-19-17-20-19-17-20-19-17----|------------------17-13-----|
|-----------------------------------------18-|-(18)-------(18)\-------15--|
|--------------------------------------------|----------------------------|
|--------------------------------------------|----------------------------|
|--------------------------------------------|----------------------------|
|--------------------------------------------|----------------------------|
|
|         PM--------------------------------------------|
|--------------------------------------------|----------------------------|
|--------------------------------------------|----------------------------|
|--------------------------------------------|-------------------------7--|
|--------------------------------------------|-------------------------7--|
|-(3)-----3-----3-----3-----3-----3-----3--3-|---3--3-3-3--/5----3--2--5--|
|-(1)-----1-----1-----1-----1-----1-----1--1-|---1--1-1-1-----------------|


                                                                       A5
                                                                ~~~~
|------13-17-----------------------------|------------------------------------|
|-(15)-------13-(13)-13b15==(13)r-13b15==|=(13)r(13)-------------------20b22==|
|----------------------------------------|-----------14-----------------------|
|----------------------------------------|--------------15-12-(12)------------|
|----------------------------------------|------------------------------------|
|----------------------------------------|------------------------------------|
|
|       PM-----------------------------------------------------------|
|----------------------------------------|------------------------------------|
|----------------------------------------|------------------------------------|
|--(7)--7--7--7---7---7-------7----7-----|---7--------7--7--7---7--7-7--2-----|
|--(7)--7--7--7---7---7-------7----7-----|---7--------7--7--7---7--7-7--2-----|
|--(5)-----------------------------------|------------------------------0-----|
|----------------------------------------|------------------------------------|


                    Bm7                                C6sus2                      D5        Bb5
                                                                                    ~~~~~~~
|-------------------20b22==(20)r(20)-(20)b22==(20)r-20-17-|------------------------------------|
|-(20)-(20)r(20)-17---------------------------------------|-20b22==(20)-20r(20)-17-------------|
|---------------------------------------------------------|------------------------19-(19)-----|
|---------------------------------------------------------|------------------------------------|
|---------------------------------------------------------|------------------------------------|
|---------------------------------------------------------|------------------------------------|
|
|---------------------------------------------------------|------------------------------------|
|---------------------------------------------------------|------------------------------------|
|--(2)---------------2------(2)-------------------------2-|-(2)---------------------2--(2)---3-|
|--(2)---------------0------(0)-------------------------0-|-(0)---------------------0--(0)---3-|
|--(0)---------------2------(2)-------------------------3-|-(3)---------------------5--(5)---1-|
|---------------------------------------------------------|------------------------------------|


 Bridge 4:28
                 F5                  C5                  G5              F  Bb5
  Gtr I
                         PM--|
|------------------|-------------------|-------------------|-------------------|
|------------------|-------------------|-------------------|-------------------|
|-(3)-3-3---3-3----|-----------------5-|-(5)---------------|-------------2--3--|
|-(3)-3-3---3-3--3-|-(3)-------------5-|-(5)-5-5-5-5-5---5-|-(5)---------3--3--|
|-(1)-1-1---1-1--3-|-(3)-------3-3-3-3-|-(3)-3-3-3-3-2-0-5-|-(5)-5-5-5-5-3--1--|
|----------------1-|-(1)-1-1-1-1-1-1---|-----------------3-|-(3)-3-3-3-3-1-----|
|
| Gtr II
|------------------|-------------------|-------------------|-------------------|
|------------------|-------------------|-------------------|-------------------|
|------------------|-----------------5-|-(5)-------------0-|-(0)-0-0---0----3--|
|-(3)-3-3-3-3-3--3-|-(3)-------------5-|-(5)-5-5-5-5-5-5-0-|-(0)-0-0---0-3--3--|
|-(1)-1-1-1-1-1--3-|-(3)-3-3-3-3-3-3-3-|-(3)-3-3-3-3-2-0---|-------------0--1--|
|----------------1-|-(1)-1-1-1-1-1-1---|-------------------|-------------------|


                  F5
                          PM--|
|-------------------|-------------------|
|-------------------|-------------------|
|-(3)-3-3---3-3-----|-------------------|
|-(3)-3-3---3-3---3-|-(3)-------------3-|
|-(1)-1-1---1-1-0-3-|-(3)-------3-3-3-3-|
|-----------------1-|-(1)-1-1-1-1-1-1-1-|
|
|-------------------|-------------------|
|-------------------|-------------------|
|-------------------|-------------------|
|-(3)-3-3-3-3-3---3-|-(3)---------------|
|-(1)-1-1-1-1-1---3-|-(3)-3-3-3-3-3-3-3-|
|-----------------1-|-(1)-1-1-1-1-1-1-1-|


          G5          F5          G5      F/ABb5
            PM------|
|-----------------------|-----------------------|
|-----------------------|-----------------------|
|-----------------------|--------------------3--|
|-(3)-(3)s5-----------3-|-(3)-(3)s5-------7--3--|
|-(3)-(3)s5-5-5-5-5-5-3-|-(3)-(3)s5-5-5-5-8--1--|
|-(1)-(1)s3-3-3-3-3-3-1-|-(1)-(1)s3-3-3-3-5-----|
|
|           PM------|
|-----------------------|-----------------------|
|-----------------------|-----------------------|
|-----------------------|--------------------3--|
|-----------------------|-----------------5--3--|
|-(3)-(3)s5-5-5-5-5-5-3-|-(3)-(3)s5-5-5-5-5--1--|
|-(1)-(1)s3-3-3-3-3-3-1-|-(1)-(1)s3-3-3-3-------|


                  F5                  C5
      PM--------|         PM--|
|-------------------|-------------------|
|-------------------|-------------------|
|-(3)-3-3-3-3-3-3---|-----------------5-|
|-(3)-3-3-3-3-3-3-3-|-(3)-------------5-|
|-(1)-1-1-1-1-1-1-3-|-(3)-------3-3-3-3-|
|-----------------1-|-(1)-1-1-1-1-1-1---|
|
|-------------------|-------------------|
|-------------------|-------------------|
|-------------------|-----------------5-|
|-(3)-3-3-3-3-3---3-|-(3)-------------5-|
|-(1)-1-1-1-1-1---3-|-(3)-3-3-3-3-3-3-3-|
|-----------------1-|-(1)-1-1-1-1-1-1---|


                  G5              F  Bb5
|-------------------|-------------------|
|-------------------|-------------------|
|-(5)---------------|-------------2--3--|
|-(5)-5-5-5-5-5---5-|-(5)---------3--3--|
|-(3)-3-3-3-3-2-0-5-|-(5)-5-5-5-5-3--1--|
|-----------------3-|-(3)-3-3-3-3-1-----|
|
|-------------------|-------------------|
|-------------------|-------------------|
|-(5)-------------0-|-(0)-0-0---0----3--|
|-(5)-5-5-5-5-5-5-0-|-(0)-0-0---0-3--3--|
|-(3)-3-3-3-3-2-0---|-------------0--1--|
|-------------------|-------------------|


                  F5
                          PM--|
|-------------------|-------------------|
|-------------------|-------------------|
|--3--3-3---3-3-----|-------------------|
|--3--3-3---3-3---3-|-(3)-------------3-|
|--1--1-1---1-1-0-3-|-(3)-------3-3-3-3-|
|-----------------1-|-(1)-1-1-1-1-1-1-1-|
|
|-------------------|-------------------|
|-------------------|-------------------|
|-------------------|-------------------|
|-(3)-3-3-3-3-3---3-|-(3)---------------|
|-(1)-1-1-1-1-1---3-|-(3)-3-3-3-3-3-3-3-|
|-----------------1-|-(1)-1-1-1-1-1-1-1-|


          G5          F5          G5      F/ABb5
            PM------|
|-----------------------|-----------------------|
|-----------------------|-----------------------|
|-----------------------|--------------------3--|
|-(3)-(3)s5-----------3-|-(3)-(3)s5-------7--3--|
|-(3)-(3)s5-5-5-5-5-5-3-|-(3)-(3)s5-5-5-5-8--1--|
|-(1)-(1)s3-3-3-3-3-3-1-|-(1)-(1)s3-3-3-3-5-----|
|
|           PM------|
|-----------------------|-----------------------|
|-----------------------|-----------------------|
|-----------------------|--------------------3--|
|-----------------------|-----------------5--3--|
|-(3)-(3)s5-5-5-5-5-5-3-|-(3)-(3)s5-5-5-5-5--1--|
|-(1)-(1)s3-3-3-3-3-3-1-|-(1)-(1)s3-3-3-3-------|


                                                                            C5
      PM--------------------------|         PM--------------------|
|-------------------|-----------------|-------------------|--------------------|
|-------------------|-----------------|-------------------|--------------------|
|-(3)-3-3-3-3-3-3-3-|-3-3-3-3-3-3-3-3-|-(3)-3-3-3-3-3-3-3-|-3-3-3-3-3-3-(3)-5--|
|-(3)-3-3-3-3-3-3-3-|-3-3-3-3-3-3-3-3-|-(3)-3-3-3-3-3-3-3-|-3-3-3-3-3-3-(3)-5--|
|-(1)-1-1-1-1-1-1-1-|-1-1-1-1-1-1-1-1-|-(1)-1-1-1-1-1-1-1-|-1-1-1-1-1-1-(1)-3--|
|-------------------|-----------------|-------------------|--------------------|
|
|     PM--------------------------|         PM--------------------|
|-------------------|-----------------|-------------------|--------------------|
|-------------------|-----------------|-------------------|--------------------|
|-(3)-3-3-3-3-3-3-3-|-3-3-3-3-3-3-3-3-|-(3)-3-3-3-3-3-3-3-|-3-3-3-3-3-------5--|
|-(3)-3-3-3-3-3-3-3-|-3-3-3-3-3-3-3-3-|-(3)-3-3-3-3-3-3-3-|-3-3-3-3-3-3-(3)-5--|
|-(1)-1-1-1-1-1-1-1-|-1-1-1-1-1-1-1-1-|-(1)-1-1-1-1-1-1-1-|-1-1-1-1-1-0-(0)-3--|
|-------------------|-----------------|-------------------|--------------------|


                                    D5
      PM--------------------------|
|-------------------|-----------------|-------------------|------------------|
|-------------------|-----------------|-------------------|------------------|
|-(5)-5-5-5-5-5-5-5-|-5-5-5-5-5-5-5-7-|-(7)---------------|------------------|
|-(5)-5-5-5-5-5-5-5-|-5-5-5-5-5-5-5-7-|-(7)-x-x-x-x-x-x-x-|-7-7-7-7-7-7-7-7--|
|-(3)-3-3-3-3-3-3-3-|-3-3-3-3-3-3-3-5-|-(5)-x-x-x-x-x-x-x-|-5-5-5-5-5-5-5-5--|
|-------------------|-----------------|-------------------|------------------|
|
|     PM--------------------------|
|-------------------|-----------------|-------------------|------------------|
|-------------------|-----------------|-------------------|------------------|
|-(5)-5-5-5-5-5-5-5-|-5-5-5-5-5-5-5-7-|-(7)---------------|------------------|
|-(5)-5-5-5-5-5-5-5-|-5-5-5-5-5-5-5-7-|-(7)-7-7-7-7-7-7-7-|-7-7-7-7-7-7-7-7--|
|-(3)-3-3-3-3-3-3-3-|-3-3-3-3-3-3-3-5-|-(5)-5-5-5-5-5-5-5-|-5-5-5-5-5-5-5-5--|
|-------------------|-----------------|-------------------|------------------|


 Chorus 5:00
  E5      B5    D5    A5                 C5  G5   C5      D5
  Gtrs I, II
  PM|                                PM|                     ~~~
|-----------------|----------------|----------------|--------------------|
|-----5---------3-|-x--------------|----------------|--------------------|
|-----4---4-----2-|-x-2-(2)--------|-----5--------5-|-(5)-7-(7)----------|
|-----2-x-4-x-x-0-|-x-2-(2)----2-2-|-----5-x-5----5-|-(5)-7-(7)----------|
|-----2-x-2-------|---0-(0)----0-0-|-0-0-----5--x---|--------------------|
|-0-0-------------|----------------|----------------|-------------3-2-0--|


        E5  B5    D5    A5                 C5  G5   C5      D5
      PM                               PM|                     ~~~
|-------------------|----------------|----------------|--------------------|
|-------5---------3-|-x--------------|----------------|--------------------|
|-------4---4-----2-|-x-2-(2)--------|-----5--------5-|-(5)-7-(7)----------|
|-------2-x-4-x-x-0-|-x-2-(2)----2-2-|-----5-x-5----5-|-(5)-7-(7)----------|
|-------2-x-2-------|---0-(0)----0-0-|-0-0-----5--x---|--------------------|
|-(0)-0-------------|----------------|----------------|-------------3-2-0--|


        E5  B5    D5    A5                 C5  G5   C5      D5
      PM                               PM|                     ~~~
|-------------------|----------------|----------------|--------------------|
|-------5---------3-|-x--------------|----------------|--------------------|
|-------4---4-----2-|-x-2-(2)--------|-----5--------5-|-(5)-7-(7)----------|
|-------2-x-4-x-x-0-|-x-2-(2)----2-2-|-----5-x-5----5-|-(5)-7-(7)----------|
|-------2-x-2-------|---0-(0)----0-0-|-0-0-----5--x---|--------------------|
|-(0)-0-------------|----------------|----------------|-------------3-2-0--|


        E5  B5    D5    A5
      PM
|-------------------|----------------|
|-------5---------3-|-x--------------|
|-------4---4-----2-|-x-2-(2)--------|
|-------2-x-4-x-x-0-|-x-2-(2)----2-2-|
|-------2-x-2-------|---0-(0)----0-0-|
|-(0)-0-------------|----------------|


                   Outro 5:21
      C5  G5                        E5
  PM|
|-----------------|-------------------|-----*|
|-----------------|-------------------|-----*|
|-----5-----------|-------------------|-----*|
|-----5-x-5-------|-------------------|-----*|
|-0-0-----5--x-/7-|-(7)-5-----------7-|-----*|
|-----------------|-------7-5-3-5-3-0-|-----*|


Comments