Iron Maiden - Dance Of Death Chords & Tabs

 

Dance Of Death Chords & Tabs

Iron Maiden Chords & Tabs

Version: 4 Type: Tab 1 rating
1 star 2 stars 3 stars 4 stars 5 stars
comments

Dance Of Death Tab

   
#----------------------------------PLEASE NOTE---------------------------------#
#This file is the author's own work and represents their interpretation of the #
#song. You may only use this file for private study, scholarship, or research. #
#------------------------------------------------------------------------------#

DANCE OF DEATH
As recorded by Iron Maiden
(From the 2003 Album DANCE OF DEATH)




 

 
Hello everyone!
This tab is to 100% correct, took a lot of time, hope you enjoy it! More tabs on http://www.metalarea.com

 

 


Gtr I (E A D G B E) - 'Clean I'
Gtr II (E A D G B E) - 'Clean II'
Gtr III (E A D G B E) - 'Clean III'
Gtr IV (E A D G B E) - 'Distortion 1'
Gtr V (E A D G B E) - 'Distortion 2'
Gtr VI (E A D G B E) - 'Lead (Distortion 3)'



 Intro
  Q=142
  Em              D/F#               D               C
 3/4
  Gtr I
  E  E E  E E E    E  E  E  E  E E   E  E E  E E E   E E E E E E
|---------------|------------------|---------------|-------------|
|---12---12-----|----15----15------|---10---10-----|---8---8-----|
|-9----9----9---|-11----11----11---|-7----7----7---|-5---5---5---|
|----9----9-----|----12----12------|----7----7-----|---5---5-----|
|-7----7----7---|--9-----9-----9---|-5----5----5---|-3---3---3---|
|---------------|------------------|---------------|-------------|
|
| Gtr II
| E  E E  E E E    E  E  E  E  E E   E  E E  E E E   E E E E E E
|---------------|------------------|---------------|-------------|
|---------------|------------------|---------------|-------------|
|---------------|------------------|---------------|-------------|
|----9----9-----|----12----12------|----7----7-----|---5---5-----|
|-7----7----7---|--9-----9-----9---|-5----5----5---|-3---3---3---|
|---------------|------------------|---------------|-------------|


                D               Em
  E E E E E E   E  E E  E E E   E  E E  E E E   E  E E  E E E
|-------------|---------------|---------------|---------------|
|---8---8-----|---10---10-----|---12---12-----|---12---12-----|
|-5---5---5---|-7----7----7---|-9----9----9---|-9----9----9---|
|---5---5-----|----7----7-----|----9----9-----|----9----9-----|
|-3---3---3---|-5----5----5---|-7----7----7---|-7----7----7---|
|-------------|---------------|---------------|---------------|
|
| E E E E E E   E  E E  E E E   E  E E  E E E   E  E E  E E E
|-------------|---------------|---------------|---------------|
|-------------|---------------|---------------|---------------|
|-------------|---------------|---------------|---------------|
|---5---5-----|----7----7-----|----9----9-----|----9----9-----|
|-3---3---3---|-5----5----5---|-7----7----7---|-7----7----7---|
|-------------|---------------|---------------|---------------|


  Em               D/F#                D                C
  E   E E  E E E    E   E  E  E  E E   E   E E  E E E   E  E E E E E
|----------------|-------------------|----------------|--------------|
|----12---12-----|-----15----15------|----10---10-----|----8---8-----|
|-9-----9----9---|-11-----11----11---|-7-----7----7---|-5----5---5---|
|-----9----9-----|-----12----12------|-----7----7-----|----5---5-----|
|-7-----7----7---|--9------9-----9---|-5-----5----5---|-3----3---3---|
|----------------|-------------------|----------------|--------------|
|
| H.                H.                 H.               H.
|----------------|-------------------|----------------|--------------|
|----------------|-------------------|----------------|--------------|
|----------------|-------------------|-7--------------|-5------------|
|-9--------------|-12----------------|----------------|--------------|
|-7--------------|--9----------------|-5--------------|-3------------|
|----------------|-------------------|----------------|--------------|
|
| Gtr III
| H.                H.                 Q.       E Q     H.
|----------------|-------------------|----------------|--------------|
|-5--------------|--7----------------|-8-------10-8---|--------------|
|----------------|-------------------|----------------|-9------------|
|----------------|-------------------|----------------|--------------|
|----------------|-------------------|----------------|--------------|
|----------------|-------------------|----------------|--------------|


                 D                 Em
  E  E E E E E    E   E E  E E E   E   E E  E E E    E   E E  E E E
|--------------|-----------------|----------------|-----------------|
|----8---8-----|-----10---10-----|----12---12-----|-----12---12-----|
|-5----5---5---|--7-----7----7---|-9-----9----9---|--9-----9----9---|
|----5---5-----|------7----7-----|-----9----9-----|------9----9-----|
|-3----3---3---|--5-----5----5---|-7-----7----7---|--7-----7----7---|
|--------------|-----------------|----------------|-----------------|
|
| H.              H.               H.               +H.
|--------------|-----------------|----------------|-----------------|
|--------------|-----------------|----------------|-----------------|
|-5------------|--7--------------|----------------|-----------------|
|--------------|-----------------|-9--------------|-(9)-------------|
|-3------------|--5--------------|-7--------------|-(7)-------------|
|--------------|-----------------|----------------|-----------------|
|
| Q    Q   Q      Q.       E Q     H.               +H.
|------7---7---|-----------------|----------------|-----------------|
|--------------|-10--------8-7---|----------------|-----------------|
|--------------|-----------------|-9--------------|-(9)-------------|
|--------------|-----------------|----------------|-----------------|
|--------------|-----------------|----------------|-----------------|
|--------------|-----------------|----------------|-----------------|


                   D/F#                D                A
  E   E E  E E E    E   E  E  E  E E   E   E E  E E E   E  E  E E E E
|----------------|-------------------|----------------|---------------|
|----12---12-----|-----15----15------|----10---10-----|------10-------|
|-9-----9----9---|-11-----11----11---|-7-----7----7---|----9----9-----|
|-----9----9-----|-----12----12------|-----7----7-----|-7-----7---7---|
|-7-----7----7---|--9------9-----9---|-5-----5----5---|----7----7-----|
|----------------|-------------------|----------------|-5---------5---|
|
| H.                H.                 H.               H.
|----------------|-------------------|----------------|---------------|
|----------------|-------------------|----------------|---------------|
|-9--------------|-12----------------|-7--------------|-6-------------|
|----------------|-12----------------|----------------|-7-------------|
|-7--------------|--9----------------|-5--------------|-0-------------|
|----------------|-------------------|----------------|---------------|
|
| Q     Q    Q      Q.        E  Q     Q.       E Q     H.
|-------7----7---|-10---------7------|----------------|---------------|
|----------------|--------------10---|-8-------10-8---|---------------|
|----------------|-------------------|----------------|-9-------------|
|----------------|-------------------|----------------|---------------|
|----------------|-------------------|----------------|---------------|
|----------------|-------------------|----------------|---------------|


  C              D                 Em
  E  E E E E E    E   E E  E E E   E   E E  E E E    E   E E  E E E
|--------------|-----------------|----------------|-----------------|
|----8---8-----|-----10---10-----|----12---12-----|-----12---12-----|
|-5----5---5---|--7-----7----7---|-9-----9----9---|--9-----9----9---|
|----5---5-----|------7----7-----|-----9----9-----|------9----9-----|
|-3----3---3---|--5-----5----5---|-7-----7----7---|--7-----7----7---|
|--------------|-----------------|----------------|-----------------|
|
| H.              H.               H.               +H.
|--------------|-----------------|----------------|-----------------|
|--------------|-----------------|-8--------------|-(8)-------------|
|-5------------|--7--------------|-9--------------|-(9)-------------|
|--------------|-----------------|-9--------------|-(9)-------------|
|-3------------|--5--------------|-7--------------|-(7)-------------|
|--------------|-----------------|----------------|-----------------|
|
| Q    E E Q      Q.       E Q     H.               +H.
|------7---7---|-----------------|----------------|-----------------|
|--------------|-10--------8-7---|----------------|-----------------|
|--------------|-----------------|-9--------------|-(9)-------------|
|--------------|-----------------|----------------|-----------------|
|--------------|-----------------|----------------|-----------------|
|--------------|-----------------|----------------|-----------------|


   Verse 1  0:30
    Q=146
                     D/F#                D                C
    E   E E  E E E    E   E  E  E  E E   E   E E  E E E   E  E E E E E
||-----------------|-------------------|----------------|---------------|
||o----12---12-----|-----15----15------|----10---10-----|----8---8------|
||--9-----9----9---|-11-----11----11---|-7-----7----7---|-5----5---5----|
||------9----9-----|-----12----12------|-----7----7-----|----5---5------|
||o-7-----7----7---|--9------9-----9---|-5-----5----5---|-3----3---3----|
||-----------------|-------------------|----------------|---------------|
|
|   H.                H.                 H.               H.
||-----------------|-------------------|----------------|---------------|
||o----------------|-------------------|----------------|---------------|
||--9--------------|-11----------------|-7--------------|-5-------------|
||--9--------------|-12----------------|-7--------------|-5-------------|
||o-7--------------|--9----------------|-5--------------|-3-------------|
||-----------------|-------------------|----------------|---------------|
|
|   E   E E  E E E    E   E  E  E  E E   E   E E  E E E   E  E E E E E
||-----------------|-------------------|----------------|---------------|
||o----------------|-------------------|----------------|---------------|
||-----------------|-------------------|----------------|---------------|
||------9----9-----|-----12----12------|-----7----7-----|----5---5------|
||o-7-----7----7---|--9------9-----9---|-5-----5----5---|-3----3---3----|
||-----------------|-------------------|----------------|---------------|


                 D                Em
  E  E E E E E   E   E E  E E E   E   E E  E E E    E   E E  E E E
|--------------|----------------|----------------|-----------------|
|----8---8-----|----10---10-----|----12---12-----|-----12---12-----|
|-5----5---5---|-7-----7----7---|-9-----9----9---|--9-----9----9---|
|----5---5-----|-----7----7-----|-----9----9-----|------9----9-----|
|-3----3---3---|-5-----5----5---|-7-----7----7---|--7-----7----7---|
|--------------|----------------|----------------|-----------------|
|
| H.             H.               H.               +H.
|--------------|----------------|----------------|-----------------|
|--------------|----------------|----------------|-----------------|
|-5------------|-7--------------|-9--------------|-(9)-------------|
|-5------------|-7--------------|-9--------------|-(9)-------------|
|-3------------|-5--------------|-7--------------|-(7)-------------|
|--------------|----------------|----------------|-----------------|
|
| E  E E E E E   E   E E  E E E   E   E E  E E E    E   E E  E E E
|--------------|----------------|----------------|-----------------|
|--------------|----------------|----------------|-----------------|
|--------------|----------------|----------------|-----------------|
|----5---5-----|-----7----7-----|-----9----9-----|------9----9-----|
|-3----3---3---|-5-----5----5---|-7-----7----7---|--7-----7----7---|
|--------------|----------------|----------------|-----------------|


                   D/F#                D                A
  E   E E  E E E    E   E  E  E  E E   E   E E  E E E   E  E  E E E E
|----------------|-------------------|----------------|---------------|
|----12---12-----|-----15----15------|----10---10-----|------10-------|
|-9-----9----9---|-11-----11----11---|-7-----7----7---|----9----9-----|
|-----9----9-----|-----12----12------|-----7----7-----|-7-----7---7---|
|-7-----7----7---|--9------9-----9---|-5-----5----5---|----7----7-----|
|----------------|-------------------|----------------|-5---------5---|
|
| H.                H.                 H.               H.
|----------------|-------------------|----------------|---------------|
|----------------|-------------------|----------------|---------------|
|-9--------------|-11----------------|-7--------------|---------------|
|-9--------------|-12----------------|-7--------------|-7-------------|
|-7--------------|--9----------------|-5--------------|-7-------------|
|----------------|-------------------|----------------|-5-------------|
|
| E   E E  E E E    E   E  E  E  E E   E   E E  E E E   E  E  E E E E
|----------------|-------------------|----------------|---------------|
|----------------|-------------------|----------------|---------------|
|----------------|-------------------|----------------|---------------|
|-----9----9-----|-----12----12------|-----7----7-----|-------7-------|
|-7-----7----7---|--9------9-----9---|-5-----5----5---|----7----7-----|
|----------------|-------------------|----------------|-5---------5---|


  C              D                Em
  E  E E E E E   E   E E  E E E   E   E E  E E E    E   E E  E E E
|--------------|----------------|----------------|------------------||
|----8---8-----|----10---10-----|----12---12-----|-----12---12-----o||
|-5----5---5---|-7-----7----7---|-9-----9----9---|--9-----9----9----||
|----5---5-----|-----7----7-----|-----9----9-----|------9----9------||
|-3----3---3---|-5-----5----5---|-7-----7----7---|--7-----7----7---o||
|--------------|----------------|----------------|------------------||
|
| H.             H.               H.               +H.
|--------------|----------------|----------------|------------------||
|--------------|----------------|----------------|-----------------o||
|-5------------|-7--------------|-9--------------|-(9)--------------||
|-5------------|-7--------------|-9--------------|-(9)--------------||
|-3------------|-5--------------|-7--------------|-(7)-------------o||
|--------------|----------------|----------------|------------------||
|
| E  E E E E E   E   E E  E E E   E   E E  E E E    E   E E  E E E
|--------------|----------------|----------------|------------------||
|--------------|----------------|----------------|-----------------o||
|--------------|----------------|----------------|------------------||
|----5---5-----|-----7----7-----|-----9----9-----|------9----9------||
|-3----3---3---|-5-----5----5---|-7-----7----7---|--7-----7----7---o||
|--------------|----------------|----------------|------------------||


  Q=154
  Em            D/F#                D             C
  PM--------------------------------------------------------|
  E E E E E E    E  E  E  E  E  E   E E E E E E   E E E E E E
|-------------|-------------------|-------------|-------------|
|-------------|-------------------|-------------|-------------|
|-9-9-9-9-9-9-|-12-12-12-12-12-12-|-7-7-7-7-7-7-|-5-5-5-5-5-5-|
|-9-9-9-9-9-9-|-12-12-12-12-12-12-|-7-7-7-7-7-7-|-5-5-5-5-5-5-|
|-------------|-------------------|-------------|-------------|
|-------------|-------------------|-------------|-------------|
|
| PM--------------------------------------------------------|
| E E E E E E    E  E  E  E  E  E   E E E E E E   E E E E E E
|-------------|-------------------|-------------|-------------|
|-------------|-------------------|-------------|-------------|
|-------------|-------------------|-------------|-------------|
|-9-9-9-9-9-9-|-12-12-12-12-12-12-|-7-7-7-7-7-7-|-5-5-5-5-5-5-|
|-7-7-7-7-7-7-|--9--9--9--9--9--9-|-5-5-5-5-5-5-|-3-3-3-3-3-3-|
|-------------|-------------------|-------------|-------------|


                D             Em
  PM------|     PM------|     PM----|
  E E E E E E   E E E E E E   E E E E Q      E  E E E E  E
|-------------|-------------|-------------|----------------|
|-------------|-------------|-------------|----------------|
|-5-5-5-5-5---|-7-7-7-7-7---|-9-9-9-9-9---|--7-------------|
|-5-5-5-5-5---|-7-7-7-7-7---|-9-9-9-9-----|----10-9-7-9-10-|
|-------------|-------------|-------------|----------------|
|-------------|-------------|-------------|----------------|
|
| PM----------------------------------------------------|
| E E E E E E   E E E E E E   E E E E E E    E  E E E E  E
|-------------|-------------|-------------|----------------|
|-------------|-------------|-------------|----------------|
|-------------|-------------|-------------|----------------|
|-5-5-5-5-5-5-|-7-7-7-7-7-7-|-9-9-9-9-9-9-|-12-10-9-7-9-10-|
|-3-3-3-3-3-3-|-5-5-5-5-5-5-|-7-7-7-7-7-7-|--7--7-7-7-7--7-|
|-------------|-------------|-------------|----------------|


                 D/F#                D             A
  ~~     PM|      PM---------|       PM------|     PM------|
  Q.     E E E    E  E  E  E  E  E   E E E E E E   E E E E E E
|--------------|-------------------|-------------|-5-5-5-5-5---|
|--------------|-------------------|-------------|-5-5-5-5-5---|
|--------9-9---|-12-12-12-12-12----|-7-7-7-7-7---|-6-6-6-6-6---|
|-9------9-9---|-12-12-12-12-12----|-7-7-7-7-7---|-7-7-7-7-7---|
|--------------|-------------------|-------------|-7-7-7-7-7---|
|--------------|-------------------|-------------|-------------|
|
| PM---------------------------------------------------------|
| E  E E E E E    E  E  E  E  E  E   E E E E E E   E E E E E E
|--------------|-------------------|-------------|-------------|
|--------------|-------------------|-------------|-------------|
|--------------|-------------------|-------------|-------------|
|-9--9-9-9-9-9-|-12-12-12-12-12-12-|-7-7-7-7-7-7-|-------------|
|-7--7-7-7-7-7-|--9--9--9--9--9--9-|-5-5-5-5-5-5-|-7-7-7-7-7-7-|
|--------------|-------------------|-------------|-5-5-5-5-5-5-|


  C             D             Em
  PM------|     PM------|         PM|
  E E E E E E   E E E E E E   Q   E E Q      E  E E E E  E
|-------------|-------------|-------------|----------------|
|-------------|-------------|-------------|----------------|
|-5-5-5-5-5---|-7-7-7-7-7---|-9---9-9-9---|--7-------------|
|-5-5-5-5-5---|-7-7-7-7-7---|-9---9-9-----|----10-9-7-9-10-|
|-------------|-------------|-------------|----------------|
|-------------|-------------|-------------|----------------|
|
| PM----------------------------------------------------|
| E E E E E E   E E E E E E   E E E E E E    E  E E E E  E
|-------------|-------------|-------------|----------------|
|-------------|-------------|-------------|----------------|
|-------------|-------------|-------------|----------------|
|-5-5-5-5-5-5-|-7-7-7-7-7-7-|-9-9-9-9-9-9-|-12-10-9-7-9-10-|
|-3-3-3-3-3-3-|-5-5-5-5-5-5-|-7-7-7-7-7-7-|--7--7-7-7-7--7-|
|-------------|-------------|-------------|----------------|


                 D/F#                D             C
  ~~     PM|      PM---------|       PM------|     PM------|
  Q.     E E E    E  E  E  E  E  E   E E E E E E   E E E E E E
|--------------|-------------------|-------------|-------------|
|--------------|-------------------|-------------|---5-5-5-5---|
|--------9-9---|-12-12-12-12-12----|-7-7-7-7-7---|-5-5-5-5-5---|
|-9------9-9---|-12-12-12-12-12----|-7-7-7-7-7---|-5-5-5-5-5---|
|--------------|-------------------|-------------|-------------|
|--------------|-------------------|-------------|-------------|
|
| PM---------------------------------------------------------|
| E  E E E E E    E  E  E  E  E  E   E E E E E E   E E E E E E
|--------------|-------------------|-------------|-------------|
|--------------|-------------------|-------------|-------------|
|--------------|-------------------|-------------|-------------|
|-9--9-9-9-9-9-|-12-12-12-12-12-12-|-7-7-7-7-7-7-|-5-5-5-5-5-5-|
|-7--7-7-7-7-7-|--9--9--9--9--9--9-|-5-5-5-5-5-5-|-3-3-3-3-3-3-|
|--------------|-------------------|-------------|-------------|


                D             Em
  PM------|     PM------|            PM|
  E E E E E E   E E E E E E   Q.     E E E    E  E E E E  E
|-------------|-------------|--------------|----------------|
|-5-5-5-5-5---|-7-7-7-7-7---|-8------8-8---|----------------|
|-5-5-5-5-5---|-7-7-7-7-7---|-9------9-9---|--7-------------|
|-5-5-5-5-5---|-7-7-7-7-7---|-9------9-9---|----10-9-7-9-10-|
|-------------|-------------|--------------|----------------|
|-------------|-------------|--------------|----------------|
|
| PM-----------------------------------------------------|
| E E E E E E   E E E E E E   E  E E E E E    E  E E E E  E
|-------------|-------------|--------------|----------------|
|-------------|-------------|--------------|----------------|
|-------------|-------------|--------------|----------------|
|-5-5-5-5-5-5-|-7-7-7-7-7-7-|-9--9-9-9-9-9-|-12-10-9-7-9-10-|
|-3-3-3-3-3-3-|-5-5-5-5-5-5-|-7--7-7-7-7-7-|--7--7-7-7-7--7-|
|-------------|-------------|--------------|----------------|


                 D/F#                D
  ~~     PM|      PM---------|       PM------|
  Q.     E E E    E  E  E  E  E  E   E E E E E E
|--------------|-------------------|-------------|
|--------------|-------------------|-------------|
|--------9-9---|-12-12-12-12-12----|-7-7-7-7-7---|
|-9------9-9---|-12-12-12-12-12----|-7-7-7-7-7---|
|--------------|-------------------|-------------|
|--------------|-------------------|-------------|
|
| PM----------------------------------------------
| E  E E E E E    E  E  E  E  E  E   E E E E E E
|--------------|-------------------|-------------|
|--------------|-------------------|-------------|
|--------------|-------------------|-------------|
|-9--9-9-9-9-9-|-12-12-12-12-12-12-|-7-7-7-7-7-7-|
|-7--7-7-7-7-7-|--9--9--9--9--9--9-|-5-5-5-5-5-5-|
|--------------|-------------------|-------------|


  A             C             D
  PM----------------------------|
  E E E E E E   E E E E E E   E E Q   Q
|-------------|-------------|-------------|
|-------------|-------------|-------------|
|-6-6-6-6-6-6-|-5-5-5-5-5-5-|-7-7-7---7---|
|-7-7-7-7-7-7-|-5-5-5-5-5-5-|-7-7-7---7---|
|-7-7-7-7-7-7-|-------------|-------------|
|-------------|-------------|-------------|
|
|---------------------------------------|
| E E E E E E   E E E E E E   E E E E E E
|-------------|-------------|-------------|
|-------------|-------------|-------------|
|-------------|-------------|-------------|
|-------------|-5-5-5-5-5-5-|-7-7-7-7-7-7-|
|-7-7-7-7-7-7-|-3-3-3-3-3-3-|-5-5-5-5-5-5-|
|-5-5-5-5-5-5-|-------------|-------------|


   Pre-Verse 1:44
    Q=170
    E5
   4/4
        |-3--|     |-3--|         |--3--|     |-3--|
     Q  E E  E  Q  E E  E     Q   E  E  E  Q  E E  E
||---7--7-7--7--7--7-7--7--|--7---7--7--7--7--7-7--7---||
||o--7--7-7--7--7--7-7--7--|-10--10-10-10--7--7-7--7--o||
||---9--9-9--9--9--9-9--9--|-11--11-11-11--7--7-7--7---||
||---9--9-9--9--9--9-9--9--|--9---9--9--9--9--9-9--9---||
||o--7----------7----------|--7------------7----------o||
||---0----------0----------|--0------------0-----------||
|
|   Gtr II
|       |-3--|     |-3--|         |--3--|
|    Q  E E  E  Q  E E  E     Q   E  E +E  Q  Q
||---0--0-0--0--0--0-0--0--|--0---0--0-(0)-0--0--------||
||o--0--0-0--0--0--0-0--0--|--0---0--0-(0)-0--0-------o||
||---4--4-4--4--4--4-4--4--|--4---4--4-(4)-4--4--------||
||---2--2-2--2--2--2-2--2--|--4---4--4-(4)-0--0--------||
||o--2----------2----------|--2------------2----------o||
||---0----------0----------|--0------------0-----------||
|
|   Gtr III
|       |-3--|     |-3--|         |--3--|     |-3--|
|    Q  E E +E  Q  E E +E     Q   E  E +E  Q  E E +E
||--^0--0-0-(0)-0--0-0-(0)-|--0---0--0-(0)-0--0-0-(0)--||
||o-^5--5-5-(5)-5--5-5-(5)-|--5---5--5-(5)-5--5-5-(5)-o||
||--^4--4-4-(4)-4--4-4-(4)-|--4---4--4-(4)-4--4-4-(4)--||
||--^2----------2----------|--2------------2-----------||
||o-^2----------2----------|--2------------2----------o||
||--^0----------0----------|--0------------0-----------||


 Verse 2  1:50
  E5          Dadd6add9/F#
                   |--3--|      |--3--|
  H    H       Q   E  E  E  Q   E  E  E
|-0----0----|--0---0--0--0--0---0--0--0-|
|-0----0----|--0---0--0--0--0---0--0--0-|
|-9----9----|-11--11-11-11-11--11-11-11-|
|-9----9----|-12--12-12-12-12--12-12-12-|
|-7----7----|--9---9--9--9--9---9--9--9-|
|-7----7----|---------------------------|
|
| H    H       H            H
|-0----0----|--0------------0-----------|
|-0----0----|--0------------0-----------|
|-4----4----|-11-----------11-----------|
|-2----2----|-12-----------12-----------|
|-2----2----|--9------------9-----------|
|-0----0----|---------------------------|


  Dadd6                 A          Aadd9
     |-3-|    |-3--|       |-3--|
  Q  E E E Q  E E +E    Q  E E +E  Q  Q
|---------------------|-5----5-(5)-0------|
|-0--0-0-0-0--0-0-(0)-|-5--5-5-(5)-0------|
|-7--7-7-7-7--7-7-(7)-|-6--6-6-(6)-6------|
|-7--7-7-7-7--7-7-(7)-|-7--7-------7--7---|
|-5--------5--5-5-(5)-|-7----------7--7---|
|---------------------|-5----------5--5---|
|
| H        H            H          H
|-0--------0----------|-5----------5------|
|-3--------3----------|-5----------5------|
|-2--------2----------|-6----------6------|
|-0--------0----------|-7----------7------|
|-0--------0----------|-7----------7------|
|---------------------|-5----------5------|


  Cmaj7            Dsus2            E5
     |-3-|            |-3-|            |-3-|    |-3-|        |--3---|
  Q  E E E Q  Q    Q  E E E Q  Q    Q  E E E Q  E E E    Q   E  E  +E  Q  Q
|-0--------0--0--|-5--5-5-5-5--5--|-7--7-7-7-7--7-7-7-|--7---7--7--(7)-7--7---|
|-0--------0--0--|-5--5-5-5-5--5--|-7--7-7-7-7--7-7-7-|-10--10-10-(10)-7--7---|
|-5----5-5-5--5--|-7--7-7-7-7--7--|-9--9-9-9-9--9-9-9-|-11--11-11-(11)-7--7---|
|-5--5-5-5-5-----|-7--------7--7--|-9--9-9-9-9--9-9-9-|--9---9--9--(9)-9--9---|
|-3--3-3-3-3-----|-5--------5-----|-7--------7--------|--7-------------7------|
|----------------|----------------|-0--------0--------|--0-------------0------|
|
|                                      |-3-|    |-3-|        |--3---|
| H        H       H        H       Q  E E E Q  E E E    Q   E  E  +E  Q  Q
|-0--------0-----|----------------|-0--0-0-0-0--0-0-0-|--0---0--0--(0)-0--0---|
|-0--------0-----|-3--------3-----|-0--0-0-0-0--0-0-0-|--0---0--0--(0)-0--0---|
|-5--------5-----|-2--------2-----|-4--4-4-4-4--4-4-4-|--4---4--4--(4)-4--4---|
|-5--------5-----|-0--------0-----|-2--2-2-2-2--2-2-2-|--4---4--4--(4)-0--0---|
|-3--------3-----|-0--------0-----|-2--------2--------|--2-------------2------|
|----------------|----------------|-0--------0--------|--0-------------0------|


  E5                Dadd6add9/F#         Dsus2           A          Aadd9
     |-3--|              |--3--|            |-3-|           |-3--|
  Q  E E +E  H       Q   E  E  E  H      Q  E E E H      Q  E E +E  Q  Q
|-0--0-0-(0)-0----|--0---0--0--0--0----|-5--5-5-5-5----|-5----5-(5)-0-----|
|-0--0-0-(0)-0----|--0---0--0--0--0----|-5--5-5-5-5----|-5--5-5-(5)-0-----|
|-9--9-9-(9)-9----|-11--11-11-11-11----|-7--7-7-7-7----|-6--6-6-(6)-6-----|
|-9--9-9-(9)-9----|-12--12-12-12-12----|-7--7-7-7-7----|-7--7-------7--7--|
|-7----------7----|--9---9--9--9--9----|-5--------5----|-7----------7--7--|
|-7----------7----|--------------------|---------------|-5----------5--5--|
|
| H          H       H            H      H        H      H          H
|-0----------0----|--0------------0----|-0--------0----|-5----------5-----|
|-0----------0----|--0------------0----|-3--------3----|-5----------5-----|
|-4----------4----|-11-----------11----|-2--------2----|-6----------6-----|
|-2----------2----|-12-----------12----|-0--------0----|-7----------7-----|
|-2----------2----|--9------------9----|-0--------0----|-7----------7-----|
|-0----------0----|--------------------|---------------|-5----------5-----|


  Cmaj7            Dsus2            E5
     |-3-|            |-3-|            |-3-|    |-3-|        |--3---|
  Q  E E E Q  Q    Q  E E E Q  Q    Q  E E E Q  E E E    Q   E  E  +E  Q  Q
|-0--------0--0--|-5--5-5-5-5--5--|-7--7-7-7-7--7-7-7-|--7---7--7--(7)-7--7---|
|-0--------0--0--|-5--5-5-5-5--5--|-7--7-7-7-7--7-7-7-|-10--10-10-(10)-7--7---|
|-5----5-5-5--5--|-7--7-7-7-7--7--|-9--9-9-9-9--9-9-9-|-11--11-11-(11)-7--7---|
|-5--5-5-5-5-----|-7--------7--7--|-9--9-9-9-9--9-9-9-|--9---9--9--(9)-9--9---|
|-3--3-3-3-3-----|-5--------5-----|-7--------7--------|--7-------------7------|
|----------------|----------------|-0--------0--------|--0-------------0------|
|
|                                      |-3-|    |-3-|        |--3---|
| H        H       H        H       Q  E E E Q  E E E    Q   E  E  +E  Q  Q
|-0--------0-----|----------------|-0--0-0-0-0--0-0-0-|--0---0--0--(0)-0--0---|
|-0--------0-----|-3--------3-----|-0--0-0-0-0--0-0-0-|--0---0--0--(0)-0--0---|
|-5--------5-----|-2--------2-----|-4--4-4-4-4--4-4-4-|--4---4--4--(4)-4--4---|
|-5--------5-----|-0--------0-----|-2--2-2-2-2--2-2-2-|--4---4--4--(4)-0--0---|
|-3--------3-----|-0--------0-----|-2--------2--------|--2-------------2------|
|----------------|----------------|-0--------0--------|--0-------------0------|


    Q=172
    E5              Gmaj13             D             A
    Gtrs I, II
    E Q.   E Q.      E  Q.    E Q.     E Q.   H      E Q.   H
||--0-0----0------|--0--0-----0------|-5-5----5----|-0-0----0----|
||o-0-0----0------|--0--0-----0------|-7-7----7----|-2-2----2----|
||--9-9----9------|-11-11----11------|-7-7----7----|-2-2----2----|
||--9------9------|-12-------12------|-7------7----|-2------2----|
||o-7------7------|-10-------10------|-5------5----|-0------0----|
||----------------|------------------|-------------|-------------|


               1.,2.,3.
  Cmaj7         Dsus2add6     E5
  E Q.   H      E Q.   H      Q  E E Q  E E
|-0-0----0----|-0-0----0----|-0--0-0-0--0-0-|
|-0-0----0----|-0-0----0----|-0--0-0-0--0-0-|
|-5-5----5----|-7-7----7----|-9--9-9-9--9-9-|
|-5------5----|-7------7----|-9--9-9-9------|
|-3------3----|-5------5----|-7------7------|
|-------------|-------------|---------------|


                      4. H.=H          Q=60     H=H
  E5
   Q   E  E Q  E E  4x E Q.   +H        H.      +Q
|-------------------||-0-0----(0)----|-^0-------(0)---|
|--7---7--7-7--7-7-o||-0-0----(0)----|-^0-------(0)---|
|-11--11-11-7--7-7--||-7-7----(7)----|-^0-------(0)---|
|--9---9--9-9--9-9--||-7-------------|-^2-------(2)---|
|--7--------7------o||-5-------------|-^2-------(2)---|
|-------------------||---------------|-^0-------(0)---|


 Main Riff 2:59
  Q=113
  Q.   S S S S S S E S S   S S S S E S S S S S S E S S
|------------------------|-----------------------------|
|------5-7-8-7-5---5-5-7-|-8-7-5---5-5-7-8-7-5---5-5-5-|
|----------------7-------|-------7-------------7-------|
|------------------------|-----------------------------|
|------------------------|-----------------------------|
|------------------------|-----------------------------|
|
| W                        W
|------------------------|-----------------------------|
|------------------------|-----------------------------|
|------------------------|-----------------------------|
|------------------------|-----------------------------|
|------------------------|-----------------------------|
|------------------------|-----------------------------|


                          Gtrs IV, V
  E   S S E S S S S S S E S S
|-----------------------------|
|-7---7-7-7-7-7-8-7-5---5-5-7-|
|---------------------7-------|
|-----------------------------|
|-----------------------------|
|-----------------------------|
|
|                         Gtr VI
| H..                     S S
|-----------------------------|
|-----------------------------|
|-----------------------------|
|-------------------------2-4-|
|-----------------------------|
|-----------------------------|


    Gtr IV
    S S S S S S S S S S S S S S S S   S S S S S S S S S S S S S S S S
||----------------5-7-5-------------|----------------------------------||
||o-8-7-5-7-8---8-------8-7-8---8-8-|-8-7-5---7---7-7-8-7-5---5---5-7-o||
||----------------------------------|-------7---------------7----------||
||----------------------------------|----------------------------------||
||o---------------------------------|---------------------------------o||
||----------------------------------|----------------------------------||
|
|   Gtr V
|   S S S S S S S S S S S S S S S S   S S S S S S S S S S S S S S S S
||----------------5-7-5-------------|----------------------------------||
||o-8-7-5-7-8---8-------8-7-8---8-8-|-8-7-5-------7-7-8-7-5---5---5-7-o||
||----------------------------------|-------7-7-------------7----------||
||----------------------------------|----------------------------------||
||o---------------------------------|---------------------------------o||
||----------------------------------|----------------------------------||
|
|   Gtr VI
|   S S S S S S S S S S S S S S S S   S S S S S S S S S S S S S S S S
||----------------------------------|----------------------------------||
||o---------------------------------|---------------------------------o||
||----------------2-4-2-------------|----------------------------------||
||--5-4-2-4-5---5-------5-4-5---5-5-|-5-4-2-------4-4-5-4-2---2---2-4--||
||o---------------------------------|-------5-5-------------5---------o||
||----------------------------------|----------------------------------||


      S S S S E S S S S S S E S S   E S S E S S S S S S E S S
|-||------------------------------|----------------------------||
|-||o-8-7-5---5-5-7-8-7-5---5-5-5-|-7-7-7-7-7-7-8-7-5---5-5-7-o||
|-||--------7-------------7-------|-------------------7--------||
|-||------------------------------|----------------------------||
|-||o-----------------------------|---------------------------o||
|-||------------------------------|----------------------------||
|
|     S S S S E S S S S S S E S S   E S S E S S S S S S E S S
|-||------------------------------|----------------------------||
|-||o-8-7-5---5-5-7-8-7-5---5-5-5-|-7-7-7-7-7-7-8-7-5---5-5-7-o||
|-||--------7-------------7-------|-------------------7--------||
|-||------------------------------|----------------------------||
|-||o-----------------------------|---------------------------o||
|-||------------------------------|----------------------------||
|
|     S S S S e S S S S S S e S S   E S S E S S S S S S e S S
|-||------------------------------|----------------------------||
|-||o-----------------------------|---------------------------o||
|-||------------------------------|----------------------------||
|-||--5-4-2---2-2-4-5-4-2---2-2-2-|-4-4-4-4-4-4-5-4-2---2-2-4--||
|-||o-------5-------------5-------|-------------------5-------o||
|-||------------------------------|----------------------------||


    S S S S S S S S S S S S S S S S
||----------------5-7-5-------------|
||o-8-7-5-7-8---8-------8-7-8---8-8-|
||----------------------------------|
||----------------------------------|
||o---------------------------------|
||----------------------------------|
|
|   S S S S S S S S S S S S S S S S
||----------------5-7-5-------------|
||o-8-7-5-7-8---8-------8-7-8---8-8-|
||----------------------------------|
||----------------------------------|
||o---------------------------------|
||----------------------------------|
|
|   S S S S S S S S S S S S S S S S
||----------------------------------|
||o---------------1-3-1-------------|
||--4-2---2-4---4-------4-2-4---4-4-|
||------5---------------------------|
||o---------------------------------|
||----------------------------------|


 1.                                  2.
  S S S S S S S S S S S S S S S S     S S S S S S S S S S S S E    E
|----------------------------------||--------------------------------|
|-8-7-5---7---7-7-8-7-5---5---5-7-o||-8-7-5---7---7-7-8-7-5---5------|
|-------7---------------7----------||-------7---------------7--------|
|----------------------------------||--------------------------------|
|---------------------------------o||--------------------------------|
|----------------------------------||--------------------------------|
|
| S S S S S S S S S S S S S S S S     S S S S S S S S S S S S E    E
|----------------------------------||--------------------------------|
|-8-7-5-------7-7-8-7-5---5---5-7-o||-8-7-5-------7-7-8-7-5---5------|
|-------7-7-------------7----------||-------7-7-------------7--------|
|----------------------------------||--------------------------------|
|---------------------------------o||--------------------------------|
|----------------------------------||--------------------------------|
|
| S S S S S S S S S S S S S S S S     S S S S S S S S S S S S S E.
|----------------------------------||--------------------------------|
|---------------------------------o||--------------------------------|
|-4-2-----2---4-4-4-2-----------2--||-4-2-----2---4-4-4-2------------|
|-----5-4-------------5-4-5---5----||-----5-4-------------5-4-5------|
|---------------------------------o||--------------------------------|
|----------------------------------||--------------------------------|


   Verse 3  3:30
    Q=127
    E5/B    D/F#  G5             A5
    H.       Q     H     +E  S S  Q
||--------------|---------------------|
||o-------------|---------------------|
||--9-----------|-12----(12)-----14--|
||--9-------12--|-12----(12)-x-x-14--|
||o-7--------9--|-10----(10)-x-x-12--|
||--7-----------|---------------------|
|
|   H.       Q     H     +E  S S  Q
||--------------|---------------------|
||o-------------|---------------------|
||--9-----------|-12----(12)-----14--|
||--9-------12--|-12----(12)-x-x-14--|
||o-7--------9--|-10----(10)-x-x-12--|
||--7-----------|---------------------|


  D5          G5     E5/B
  Q.   S S Q   Q     H     S S S  S S  S S S
|------------------|---------------------------|
|------------------|---------------------------|
|-7--------7-------|---------------------------|
|-7----7-7-7---9---|-9----10-9-7----7----------|
|-5----5-5-5--10---|-7-----------10---10-9-7---|
|------------------|-7-------------------------|
|
| Q.   S S Q   Q     H     S S S  S S  S S S
|------------------|---------------------------|
|------------------|---------------------------|
|-7--------7-------|---------------------------|
|-7----7-7-7--12--|-9----10-9-7----7----------|
|-5----5-5-5--10--|-7-----------10---10-9-7---|
|------------------|-7-------------------------|


  E5/B    D/F#  G5             A5
  H.       Q     H     +E  S S  Q
|-------------|---------------------|
|-------------|---------------------|
|-9-----------|-12----(12)-----14--|
|-9-------12--|-12----(12)-x-x-14--|
|-7--------9--|-10----(10)-x-x-12--|
|-7-----------|---------------------|
|
| H.       Q     H     +E  S S  Q
|-------------|---------------------|
|-------------|---------------------|
|-9-----------|-12----(12)-----14--|
|-9-------12--|-12----(12)-x-x-14--|
|-7--------9--|-10----(10)-x-x-12--|
|-7-----------|---------------------|


                    1.              2.
  D5          G5     E5/B C5         E5/B C5
  Q.   S S Q   Q     H     Q  Q      H     Q  E S S
|------------------|--------------||----------------|
|------------------|-------------o||------------5-7-|
|-7--------7-------|--------------||----------------|
|-7----7-7-7---9---|-9------------||-9--------------|
|-5----5-5-5--10---|-7----10-----o||-7----10--------|
|------------------|-7-----8--7---||-7-----8--7-----|
|
| Q.   S S Q   Q     H     Q  Q      H     Q  E S S
|------------------|--------------||----------------|
|------------------|-------------o||----------------|
|-7--------7-------|--------------||----------------|
|-7----7-7-7--12--|-9------------||-9----------2-4-|
|-5----5-5-5--10--|-7----10-----o||-7----10--------|
|------------------|-7-----8--7---||-7-----8--7-----|


   Main Riff 4:01
    S S S S E S S S S S S E S S
||------------------------------|
||o-8-7-5---5-5-7-8-7-5---5-5-5-|
||--------7-------------7-------|
||------------------------------|
||o-----------------------------|
||------------------------------|
|
|   S S S S E S S S S S S E S S
||------------------------------|
||o-----------------------------|
||------------------------------|
||--5-4-2---2-2-4-5-4-2---2-2-2-|
||o-------5-------------5-------|
||------------------------------|
|
|   Gtr VI
|   W
||------------------------------|
||o-----------------------------|
||------------------------------|
||------------------------------|
||o-----------------------------|
||------------------------------|


 1.                            2.
  E S S E S S S S S S E S S     E   S S E S S S S S S E S S
|----------------------------||------------------------------|
|-7-7-7-7-7-7-8-7-5---5-5-7-o||-7---7-7-7-7-7-8-7-5---5-5-7--|
|-------------------7--------||---------------------7--------|
|----------------------------||------------------------------|
|---------------------------o||------------------------------|
|----------------------------||------------------------------|
|
| E S S E S S S S S S E S S     E   S S E S S S S S S E S S
|----------------------------||------------------------------|
|---------------------------o||------------------------------|
|----------------------------||------------------------------|
|-4-4-4-4-4-4-5-4-2---2-2-4--||-4---4-4-4-4-4-5-4-2---2-2-4--|
|-------------------5-------o||---------------------5--------|
|----------------------------||------------------------------|
|
| W                             H..                     S S
|----------------------------||------------------------------|
|---------------------------o||------------------------------|
|----------------------------||---------------------------2--|
|----------------------------||-------------------------5----|
|---------------------------o||------------------------------|
|----------------------------||------------------------------|


                                     1.
    S S S S S S S S S S S S S S S S   S S S S S S S S S S S S S S S S
||----------------5-7-5-------------|----------------------------------||
||o-8-7-5-7-8---8-------8-7-8---8-8-|-8-7-5---7---7-7-8-7-5---5---5-7-o||
||----------------------------------|-------7---------------7----------||
||----------------------------------|----------------------------------||
||o---------------------------------|---------------------------------o||
||----------------------------------|----------------------------------||
|
|   S S S S S S S S S S S S S S S S   S S S S S S S S S S S S S S S S
||----------------------------------|----------------------------------||
||o---------------------------------|---------------------------------o||
||----------------2-4-2-------------|----------------------------------||
||--5-4-2-4-5---5-------5-4-5---5-5-|-5-4-2---4---4-4-5-4-2---2---2-4--||
||o---------------------------------|-------5---------------5---------o||
||----------------------------------|----------------------------------||
|
|   S S S S S S S S S S S S S S S S   S S S S S S S S S S S S S S S S
||----------------------------------|----------------------------------||
||o---------------1-3-1-------------|---------------------------------o||
||--4-2---2-4---4-------4-2-4---4-4-|-4-2-----2---4-4-4-2-----------2--||
||------5---------------------------|-----5-4-------------5-4-5---5----||
||o---------------------------------|---------------------------------o||
||----------------------------------|----------------------------------||


 2.
  S S S S S S S S S S S S S S  S S
|-------------------------------------|
|-8-7-5---7---7-7-8-7-5---5----5-7----|
|-------7---------------7-------------|
|-------------------------------------|
|-------------------------------------|
|-------------------------------------|
|
| S S S S S S S S S S S S S S  S S
|-------------------------------------|
|-------------------------------------|
|-------------------------------------|
|-5-4-2---4---4-4-5-4-2---2----2-4----|
|-------5---------------5-------------|
|-------------------------------------|
|
| S S S S S S S S S S S S S E.
|-------------------------------------|
|-------------------------------------|
|-4-2-----2---4-4-4-2-----------------|
|-----5-4-------------5-4-5-----------|
|-------------------------------------|
|-------------------------------------|


    S S S S E S S S S S S E S S
||------------------------------|
||o-8-7-5---5-5-7-8-7-5---5-5-5-|
||--------7-------------7-------|
||------------------------------|
||o-----------------------------|
||------------------------------|
|
|   S S S S E S S S S S S E S S
||------------------------------|
||o-----------------------------|
||------------------------------|
||--5-4-2---2-2-4-5-4-2---2-2-2-|
||o-------5-------------5-------|
||------------------------------|
|
|   W
||------------------------------|
||o-----------------------------|
||------------------------------|
||------------------------------|
||o-----------------------------|
||------------------------------|


 1.                            2.
  E S S E S S S S S S E S S     E   S S E S S S S S S E S S
|----------------------------||------------------------------|
|-7-7-7-7-7-7-8-7-5---5-5-7-o||-7---7-7-7-7-7-8-7-5---5-5-7--|
|-------------------7--------||---------------------7--------|
|----------------------------||------------------------------|
|---------------------------o||------------------------------|
|----------------------------||------------------------------|
|
| E S S E S S S S S S E S S     E   S S E S S S S S S E S S
|----------------------------||------------------------------|
|---------------------------o||------------------------------|
|----------------------------||------------------------------|
|-4-4-4-4-4-4-5-4-2---2-2-4--||-4---4-4-4-4-4-5-4-2---2-2-4--|
|-------------------5-------o||---------------------5--------|
|----------------------------||------------------------------|
|
| W                             H..                     S S
|----------------------------||------------------------------|
|---------------------------o||------------------------------|
|----------------------------||---------------------------2--|
|----------------------------||-------------------------5----|
|---------------------------o||------------------------------|
|----------------------------||------------------------------|


    S S S S S S S S S S S S S S S S
||----------------5-7-5-------------|
||o-8-7---7-8---8-------8-7-8---8-8-|
||------9---------------------------|
||----------------------------------|
||o---------------------------------|
||----------------------------------|
|
|   S S S S S S S S S S S S S S S S
||----------------------------------|
||o---------------------------------|
||----------------2-4-2-------------|
||--5-4---4-5---5-------5-4-5---5-5-|
||o-----7---------------------------|
||----------------------------------|
|
|   S S S S S S S S S S S S S S S S
||----------------------------------|
||o---------------1-3-1-------------|
||--4-2---2-4---4-------4-2-4---4-4-|
||------5---------------------------|
||o---------------------------------|
||----------------------------------|


 1.                                  2.
  S S S S S S S S S S S S S S S S     S S S S S S S S S S S S E E
|----------------------------------||------------------------------|
|-8-7-----7---7-7-8-7-----------7-o||-8-7-5---7---7-7-8-7----------|
|-----9-7-------------9-7-9---9----||-------7-------------9-7-9-9--|
|----------------------------------||------------------------------|
|---------------------------------o||------------------------------|
|----------------------------------||------------------------------|
|
| S S S S S S S S S S S S S S S S     S S S S S S S S S S S S E E
|----------------------------------||------------------------------|
|---------------------------------o||------------------------------|
|----------------------------------||------------------------------|
|-5-4-----4---4-4-5-4-----------4--||-5-4-----4---4-4-5-4----------|
|-----7-5-------------7-5-7---7---o||-----7-5-------------7-5-7-7--|
|----------------------------------||------------------------------|
|
| S S S S S S S S S S S S S S S S     S S S S S S S S S S S S E E
|----------------------------------||------------------------------|
|---------------------------------o||------------------------------|
|-4-2-----2---4-4-4-2-----------2--||-4-2-----2---4-4-4-2-------4--|
|-----5-4-------------5-4-5---5----||-----5-4-------------5-4-5----|
|---------------------------------o||------------------------------|
|----------------------------------||------------------------------|


 Guitar Solo 1  4:32
  Q=130
  E5/B    D/F#  G5               A5
  Gtr VI
  ~~                         ~~~~~~~~~~
  H.       Q     Q.   E  +E  E   +Q
|-------------|-----------------------|
|-------------|-----------------------|
|-------------|-------7--(7)-9---(9)--|
|-5--------7--|-/9--------------------|
|-------------|-----------------------|
|-------------|-----------------------|
|
| Gtr IV
| H.       Q     H       +E  S S  Q
|-------------|-----------------------|
|-------------|-----------------------|
|-9-----------|-12------(12)-----14--|
|-9-------12--|-12------(12)-x-x-14--|
|-7--------9--|-10------(10)-x-x-12--|
|-7-----------|-----------------------|
|
| Gtr V
| H.       Q     H       +E  S S  Q
|-------------|-----------------------|
|-------------|-----------------------|
|-9-----------|-12------(12)-----14--|
|-9-------12--|-12------(12)-x-x-14--|
|-7--------9--|-10------(10)-x-x-12--|
|-7-----------|-----------------------|


  D5          G5        E5/B
 ~~~~                    ~~               ~~~
  Q.   S S Q   S  S E    H     Q          Q
|---------------------|------------------------------|
|---------------------|------------------------------|
|---------------------|------------------------------|
|-7----5---5----------|------------------------------|
|--------7-----7--5---|-/7----10--------/14----------|
|-------------------7-|------------------------------|
|
| Q.   S S Q   Q         H     S S S  S   S  S S S
|---------------------|------------------------------|
|---------------------|------------------------------|
|-7--------7----------|------------------------------|
|-7----7-7-7---9------|--9----10-9-7------7----------|
|-5----5-5-5--10------|--7-----------10-----10-9-7---|
|---------------------|--7---------------------------|
|
| Q.   S S Q   Q         H     S S S  S   S  S S S
|---------------------|------------------------------|
|---------------------|------------------------------|
|-7--------7----------|------------------------------|
|-7----7-7-7--12-----|--9----10-9-7------7----------|
|-5----5-5-5--10-----|--7-----------10-----10-9-7---|
|---------------------|--7---------------------------|


  E5/B                               D/F#       G5                                                               A5
                        ~~~~~
                             |--3--|  |--3--|    |--------3--------|  |-------3-------|   |--------3---------|
   E      +E    E      +E    E  E  E  E  E  E    E  S        +S    E  S      +S    E  E   E   E    S        +S    S   S  S  S
|---------------------------12-14-15-14-12----|-12-----------------------------------12---------------------------------------|
|-15b17==(15)r-15b17==(15)r----------------15-|----15b15.5==(15)rp12--------------12-----15p=12------------------12-----------|
|---------------------------------------------|----------------------14b16==(14)r-----------------14b16====(14)r-----14p12----|
|---------------------------------------------|----------------------------------------------------------------------------14-|
|---------------------------------------------|-------------------------------------------------------------------------------|
|---------------------------------------------|-------------------------------------------------------------------------------|
|
|  H.                                 Q          H                                       +E     S        S        Q
|---------------------------------------------|-------------------------------------------------------------------------------|
|---------------------------------------------|-------------------------------------------------------------------------------|
|--9------------------------------------------|-12--------------------------------------(12)---------------------14----------|
|--9---------------------------------12-------|-12--------------------------------------(12)----x--------x-------14----------|
|--7----------------------------------9-------|-10--------------------------------------(10)----x--------x-------12----------|
|--7------------------------------------------|-------------------------------------------------------------------------------|
|
|  H.                                 Q          H                                       +E     S        S        Q
|---------------------------------------------|-------------------------------------------------------------------------------|
|---------------------------------------------|-------------------------------------------------------------------------------|
|--9------------------------------------------|-12--------------------------------------(12)---------------------14----------|
|--9---------------------------------12-------|-12--------------------------------------(12)----x--------x-------14----------|
|--7----------------------------------9-------|-10--------------------------------------(10)----x--------x-------12----------|
|--7------------------------------------------|-------------------------------------------------------------------------------|


  D5                G5       E5/B    C5
    ~~~~                      ~~~~
               |----3----|
    Q.    E    Q  Q      Q    H..           T  T  T  T
|--------------------------|------------------------15----|
|--------------------------|---------------17-17-17-------|
|-/14----12---11-----------|------------------------------|
|----------------12--------|-14---------------------------|
|-----------------------12-|------------------------------|
|--------------------------|------------------------------|
|
|   Q.    S S  Q     Q        H       Q  Q
|--------------------------|------------------------------|
|--------------------------|------------------------------|
|---7----------7-----------|------------------------------|
|---7-----7-7--7-----9-----|--9---------------------------|
|---5-----5-5--5----10-----|--7------10-------------------|
|--------------------------|--7-------8--7----------------|
|
|   Q.    S S  Q     Q        H       Q  Q
|--------------------------|------------------------------|
|--------------------------|------------------------------|
|---7----------7-----------|------------------------------|
|---7-----7-7--7----12----|--9---------------------------|
|---5-----5-5--5----10----|--7------10-------------------|
|--------------------------|--7-------8--7----------------|


  E5/B                                                  D/F#
   |------6-------|  |------6-------|  |------6-------|  |------6-------|
   S  S  S  S  S  S  S  S  S  S  S  S  S  S  S  S  S  S  S  S  S  S  S  S
|-19p15----------15h19p15-------------15h19p15----------15h19p15----------|
|-------19p15h19----------15-15-15h17----------19p15h19----------19-19p15-|
|-------------------------------------------------------------------------|
|-------------------------------------------------------------------------|
|-------------------------------------------------------------------------|
|-------------------------------------------------------------------------|
|
| Gtrs IV, V
|  H.                                                    Q
|-------------------------------------------------------------------------|
|-------------------------------------------------------------------------|
|--9----------------------------------------------------------------------|
|--9----------------------------------------------------12----------------|
|--7-----------------------------------------------------9----------------|
|--7----------------------------------------------------------------------|


  G5                                                  A5
                                                               ~~~~~~
   |------6-------|  |------6-------|
   S  S  S  S  S  S  S  S  S  S  S  S   E   S  +S      S      +S     E
|-19p15----------15h19p15----------15------19-(19)b20r19b21==(19)r-12--|
|-------19p15h19----------19p15h19--------------------------------------|
|--------------------------------------16-------------------------------|
|-----------------------------------------------------------------------|
|-----------------------------------------------------------------------|
|-----------------------------------------------------------------------|
|
|  H                                   +E   S   S      Q
|-----------------------------------------------------------------------|
|-----------------------------------------------------------------------|
|-12----------------------------------(12)------------14---------------|
|-12----------------------------------(12)--x---x-----14---------------|
|-10----------------------------------(10)--x---x-----12---------------|
|-----------------------------------------------------------------------|

[ Tab from: http://www.guitartabs.cc/tabs/i/iron_maiden/dance_of_death_tab_ver_4.html ]
  D5                                             G5
           ~~~~~        ~~~~~
                               |-------3-------|  |------------3------------|
   E      +E    E      +E      S      +S    E  E  S      +S    E  S        +S
|-------------------------------------------------------------------------------|
|-15b17==(15)r-15b17==(15)r---15b17==(15)r-15-12--------------------------------|
|------------------------------------------------14b16==(14)r-14-12b12.5==(12)r-|
|-------------------------------------------------------------------------------|
|-------------------------------------------------------------------------------|
|-------------------------------------------------------------------------------|
|
| Gtr IV
|  Q.                   S   S  Q                  Q
|-------------------------------------------------------------------------------|
|-------------------------------------------------------------------------------|
|--7---------------------------7------------------------------------------------|
|--7--------------------7---7--7------------------9-----------------------------|
|--5--------------------5---5--5-----------------10-----------------------------|
|-------------------------------------------------------------------------------|
|
| Gtr V
|  Q.                   S   S  Q                  Q
|-------------------------------------------------------------------------------|
|-------------------------------------------------------------------------------|
|--7---------------------------7------------------------------------------------|
|--7--------------------7---7--7-----------------12----------------------------|
|--5--------------------5---5--5-----------------10----------------------------|
|-------------------------------------------------------------------------------|


  E5/B
                     ~~
   |--3--|  |--3--|
   E  E  E  E  E  E  H
|--------------------------------------|
|--------------------------------------|
|----12--------------------------------|
|-14-----------------------------------|
|-------14-13-12-10--------------------|
|-------------------12-----------------|
|
|  H                 S S S  S S  S S S
|--------------------------------------|
|--------------------------------------|
|--------------------------------------|
|--9----------------10-9-7----7--------|
|--7-----------------------10---10-9-7-|
|--7-----------------------------------|
|
|  H                 S S S  S S  S S S
|--------------------------------------|
|--------------------------------------|
|--------------------------------------|
|--9----------------10-9-7----7--------|
|--7-----------------------10---10-9-7-|
|--7-----------------------------------|


  E5/B                           D/F#
       T    T    T
  |----5----|            |3| |----6:5-----|
  S S  S S  S S  S S S S E S S S    S S S S
|-5h7-10p5-10p7-12p7p5---5h7p6p5--------5-5-|
|----------------------8------------8p5-----|
|-------------------------------------------|
|-------------------------------------------|
|-------------------------------------------|
|-------------------------------------------|
|
| Gtrs IV, V
| H.                              Q
|-------------------------------------------|
|-------------------------------------------|
|-9-----------------------------------------|
|-9------------------------------12---------|
|-7-------------------------------9---------|
|-7-----------------------------------------|


  G5                               A5
   |--3--|  |--3--|   |---3----|    |--3---|
   E  E  E  E  E  E   E   E    E    E   E  E
|----15-17-15-14--15--14--------14---------|
|-----0-----------------------17-------17-15--|
|---------------------------------------------|
|---------------------------------------------|
|---------------------------------------------|
|---------------------------------------------|
|
|  H                 +E     S    S  Q
|---------------------------------------------|
|---------------------------------------------|
|-12----------------(12)-----------14--------|
|-12----------------(12)----x----x-14--------|
|-10----------------(10)----x----x-12--------|
|---------------------------------------------|


  D5                   G5
  Gtr VI
           ~~
   E    E  Q      E  E  E   E
|-----------------------------|
|-17--/20-17-----17-19-20--19-|
|-----------------------------|
|-----------------------------|
|-----------------------------|
|-----------------------------|
|
| Gtr IV
|  Q.        S S  Q     Q
|-----------------------------|
|-----------------------------|
|--7--------------7-----------|
|--7---------7-7--7-----9-----|
|--5---------5-5--5----10-----|
|-----------------------------|
|
| Gtr V
|  Q.        S S  Q     Q
|-----------------------------|
|-----------------------------|
|--7--------------7-----------|
|--7---------7-7--7----12----|
|--5---------5-5--5----10----|
|-----------------------------|


  E5/B                    C5
                                               ~~~~~
   S  S  S  S  S  S  S  S  S  S  S  S  E      +E
|----------17-------17-19----17-19-20-20b22==(20)r-|
|-17-19-19----19-20-------20-----------------------|
|--------------------------------------------------|
|--------------------------------------------------|
|--------------------------------------------------|
|--------------------------------------------------|
|
|  H                       Q           Q
|--------------------------------------------------|
|--------------------------------------------------|
|--------------------------------------------------|
|--9-----------------------------------------------|
|--7----------------------10-----------------------|
|--7-----------------------8-----------7-----------|
|
|  H                       Q           Q
|--------------------------------------------------|
|--------------------------------------------------|
|--------------------------------------------------|
|--9-----------------------------------------------|
|--7----------------------10-----------------------|
|--7-----------------------8-----------7-----------|


 Guitar Solo 2  5:01
  F#5                 A5            D5              A5
                        .5
                                                  ~~~~~~~~~~~
   Q  E  E     E   E   +Q           +Q    E E +E  E S S  E
|---------------------------------|-----------------5-7--5---|
|---------------------------------|---------------5----------|
|-/6--6-[6]---[6]-[6]-([6])-------|-(6)--/4-2-(2)------------|
|---------------------------------|--------------------------|
|---------------------------------|--------------------------|
|---------------------------------|--------------------------|
|
| Gtrs IV, V
|     PM----|
|  Q  E  S  S  E   E    E    +E      H.             E   +E
|---------------------------------|--------------------------|
|---------------------------------|--------------------------|
|---------------------------------|--------------------------|
|---------------------------------|--0-----------------------|
|--4-----------4---4----7----(7)-|--0--------------7---(7)-|
|--2--2--2--2--2---2----5----(5)-|-----------------5---(5)-|


    E5                                       F#5
    ~~
                  |----6-----| |----6----|
  a E. S a  S E.  S S  S S S S S S S S S S    S  S  S  S E  S      +E.    Q      S  S
|-5-7--------------------------------------|-------------9------------------------------|
|------9-9-10-9----------------------------|-----9-10-12---12b14==(12)---12r-----------|
|----------------11-9-11-9s7-9-7-9-7s6-7s9-|-11------------------------------------11---|
|------------------------------------------|------------------------------------11------|
|------------------------------------------|--------------------------------------------|
|------------------------------------------|--------------------------------------------|
|
|   H.                         Q              Q.            S       S  E  E   Q
|------------------------------------------|--------------------------------------------|
|------------------------------------------|--------------------------------------------|
|------------------------------------------|--------------------------------------------|
|---2--------------------------2-----------|--4-----------------------------------------|
|---2--------------------------2-----------|--4------------------------4--4---4---------|
|---0--------------------------------------|--2-------------2-------2--2--2---2---------|


  F#5                                          A5
                             ~~~~~~~~
   |--3--|            |-----6------|
   S  S  S T  T  T T  S S  S S S   S E     +E  +Q
|--------------------------------------------------------|
|-10h12p10s9-10----9h10p9--------------------------------|
|---------------11--------11p9-9---9-9b11==(9)r(9)------|
|--------------------------------------------------------|
|--------------------------------------------------------|
|--------------------------------------------------------|
|
|                     PM---------|
|  Q                  E      S   S   E      E   E   +E
|--------------------------------------------------------|
|--------------------------------------------------------|
|--------------------------------------------------------|
|--------------------------------------------------------|
|--4---------------------------------4------4---7---(7)-|
|--2------------------2------2---2---2------2---5---(5)-|


  D5                                  A5
   E.  S  E        +E    a    E  S  S  S  S  T      +T    S
|-14-------------------------14-17p14-16p14-----------------|
|-----14-17b17.5==(17)-(17)r----------------17b19==(17)r-16-|
|-----------------------------------------------------------|
|-----------------------------------------------------------|
|-----------------------------------------------------------|
|-----------------------------------------------------------|
|
|  H.                                  E    +E
|-----------------------------------------------------------|
|-----------------------------------------------------------|
|-----------------------------------------------------------|
|--0--------------------------------------------------------|
|--0-----------------------------------7----(7)------------|
|--------------------------------------5----(5)------------|


  E5
                               |------6-------|  |------6-------|
   S  S  X      +X    T  T  T  S  S  S  S  S  S  S  S  S  S  S  S  S  S  S  S
|-----------------------------------------------------------------------------|
|-17p14--------------14-17p14-17p14-14-17p14-14-14-14-17p14-17p14-13-15-14-13-|
|-------16b18==(16)r----------------------------------------------------------|
|-----------------------------------------------------------------------------|
|-----------------------------------------------------------------------------|
|-----------------------------------------------------------------------------|
|
|  H.                                                              Q
|-----------------------------------------------------------------------------|
|-----------------------------------------------------------------------------|
|-----------------------------------------------------------------------------|
|--2---------------------------------------------------------------2----------|
|--2---------------------------------------------------------------2----------|
|--0--------------------------------------------------------------------------|


  F#5
                                          ~~~~~~~~~~~
   S   S  S  S  S      +E      S  S      +E.    +Q
|------------------------------------------------------|
|-14--13-12-10-12b13==(12)r---10-12b14==(12)r==(12)---|
|------------------------------------------------------|
|------------------------------------------------------|
|------------------------------------------------------|
|------------------------------------------------------|
|
|  Q.                       S  S  E          E   Q
|------------------------------------------------------|
|------------------------------------------------------|
|------------------------------------------------------|
|--4---------------------------------------------------|
|--4------------------------------4----------4---4-----|
|--2------------------------2--2--2----------2---2-----|


   Interlude 5:16
    Q=132
    F#5                 A5    D5                     A5
     ~~~
     H.                 Q      Q      E E   +E   E    Q
||--------------------------|-----------------------------|
||o-------------------------|-----------------------------|
||----------------------9---|-----------------------------|
||--11----------------------|-12-----11-9---(9)-11---12---|
||o-------------------------|-----------------------------|
||--------------------------|-----------------------------|
|
|    E  S S E S S E S S Q      E S S  E S S  E   S S  Q
||--------------------------|-----------------------------|
||o-------------------------|-----------------------------|
||--------------------------|-----------------------------|
||--------------------------|--0------0------0------------|
||o--4------4-----4-----7--|--0-0-0--0-0-0--0---0-0--7--|
||---2--2-2-2-2-2-2-2-2-5--|-------------------------5--|


  E5                     A5      F#5
                                   ~~~
   Q     E  E    +E  E    E  E     W
|------------------------------|---------------------------|
|------------------------------|---------------------------|
|------------------------------|---------------------------|
|-11-----9-----------9-------9-|-/11-----------------------|
|----------12---(12)-----12----|---------------------------|
|------------------------------|---------------------------|
|
|  E S S E  S S   E  S S  Q        E S S E S S E S S E S S
|------------------------------|---------------------------|
|------------------------------|---------------------------|
|------------------------------|---------------------------|
|------------------------------|---------------------------|
|--2-----2--------2-------7---|---4-----4-----4-----4-----|
|--0-0-0-0--0-0---0--0-0--5---|---2-2-2-2-2-2-2-2-2-2-2-2-|


  F#5                 A5    D5                     A5
   ~~~
   H.                 Q      Q      E E   +E   E    Q
|-------------------------|-----------------------------|
|-------------------------|-----------------------------|
|---------------------9---|-----------------------------|
|-11----------------------|-12-----11-9---(9)-11---12---|
|-------------------------|-----------------------------|
|-------------------------|-----------------------------|
|
|  E  S S E S S E S S Q      E S S  E S S  E   S S  Q
|-------------------------|-----------------------------|
|-------------------------|-----------------------------|
|-------------------------|-----------------------------|
|-------------------------|--0------0------0------------|
|--4------4-----4-----7--|--0-0-0--0-0-0--0---0-0--7--|
|--2--2-2-2-2-2-2-2-2-5--|-------------------------5--|


  E5                     A5       F#5
                                  ~
   Q     E  E    +E  E    E   E   W
|-------------------------------|--------------------||
|-------------------------------|-------------------o||
|-------------------------------|--------------------||
|-11-----9-----------9----------|--------------------||
|----------12---(12)-----12--11-|-9-----------------o||
|-------------------------------|--------------------||
|
|  E S S E  S S   E  S S  Q       E S S E S S Q  Q
|-------------------------------|--------------------||
|-------------------------------|-------------------o||
|-------------------------------|--------------------||
|-------------------------------|-------------4--4---||
|--2-----2--------2-------7----|-4-----4-----4--4--o||
|--0-0-0-0--0-0---0--0-0--5----|-2-2-2-2-2-2-2--2---||


 Guitar Solo 3  5:45
  E5                                   G5
                |-----3-----|  |--3--|  |------5------|
   E      +E   +E   S  +S   E  E  E  E  S  S  S    S  S
|-------------------------------------------------------|
|-15b17==(15)-(15)-15r(15)-13-12-13-12-13p10h12p==10h12-|
|-------------------------------------------------------|
|-------------------------------------------------------|
|-------------------------------------------------------|
|-------------------------------------------------------|
|
|  H.                                   E       E
|-------------------------------------------------------|
|-------------------------------------------------------|
|-------------------------------------------------------|
|--2------------------------------------5---------------|
|--2------------------------------------5---------------|
|--0------------------------------------3---------------|


  C5                                    G5
   |-------7--------| |-3-| |----6----|
   S  S  S  S  S  S S E E E S S S S S S E.    S
|--------------------------------------------15b17==|
|-13p12p10------------------------------------------|
|----------14p12p11-9-9p7p5---5---------------------|
|---------------------------5---7p5-----------------|
|-----------------------------------7-7-7----------|
|---------------------------------------------------|
|
|  H.                                   E  E
|---------------------------------------------------|
|---------------------------------------------------|
|--5------------------------------------------------|
|--5------------------------------------5-----------|
|--3------------------------------------5-----------|
|---------------------------------------3-----------|


  D5                                  G5
               |--3--|
   +E    S  S  E  E  E  S  a  S  S  S  S  S  S  S
|-(15)r-15-14-------------------------------------|
|-------------17----17-15-15-14-12----12----------|
|----------------16----------------15----15-14-12-|
|-------------------------------------------------|
|-------------------------------------------------|
|-------------------------------------------------|
|
|   H.                                 E     E
|-------------------------------------------------|
|-------------------------------------------------|
|-------------------------------------------------|
|---7---------------------------------------------|
|---5----------------------------------5----------|
|--------------------------------------3----------|


  E5
   S  S  S  S  X  T.  S  T  S.  Q   E E
|-----------------------------------7-8-|
|---------------------------------------|
|----12---------------------------------|
|-14----14-13-12-----12-----------------|
|----------------14-----14-12--10------|
|---------------------------------------|
|
|  W
|---------------------------------------|
|---------------------------------------|
|---------------------------------------|
|--2------------------------------------|
|--2------------------------------------|
|--0------------------------------------|


  E5                                  G5
       T          T                      T
               |-----6-----|
   S   S  S S  S  S S S  S S  S S E..    T E
|--------------------------------------------|
|-12--13p12p8h12-13p0h8h12p8------------12p8-|
|--------------------------------------------|
|----------------------------10--------------|
|-------------------------------x-7----------|
|--------------------------------------------|
|
|  H.                                 E    E
|--------------------------------------------|
|--------------------------------------------|
|--------------------------------------------|
|--2----------------------------------5------|
|--2----------------------------------5------|
|--0----------------------------------3------|


  C5                                      G5
        |-3--| |----6-----| |-----6-----| |-----6------|
   S  S S S  S S S S  S S S S  S S S S  S S S T T S S  S
|----------------7-7h10p8p7----------7h10p8p7-----7h8h10-|
|-15p13p0-8h12p8------------8h12p8p0----------8p0--------|
|--------------------------------------------------------|
|--------------------------------------------------------|
|--------------------------------------------------------|
|--------------------------------------------------------|
|
|  H.                                     E       E
|--------------------------------------------------------|
|--------------------------------------------------------|
|--5-----------------------------------------------------|
|--5--------------------------------------5--------------|
|--3--------------------------------------5--------------|
|-----------------------------------------3--------------|


  D5                                         G5
  |------7------| |----5----|  |-----6-----|  |---3---|
  S  S S S S S  S S  S S  S S  S S  S S  S S  S S  T  T  T  T  T  T
|-7h10p7p0-7h8h10p8----8h12p8----8h10p8----8h12p8-17-17-16-16-15-14-|
|-------------------10--------10--------10--------------------------|
|-------------------------------------------------------------------|
|-------------------------------------------------------------------|
|-------------------------------------------------------------------|
|-------------------------------------------------------------------|
|
| H.                                          E          E
|-------------------------------------------------------------------|
|-------------------------------------------------------------------|
|-------------------------------------------------------------------|
|-7-----------------------------------------------------------------|
|-5-------------------------------------------5---------------------|
|---------------------------------------------3---------------------|


  E5
                       |-----6------|
   S. T S S S  S S T T S S  S  S S  S  Q
|-12p10p7---7h10p8p7-7-7------10p8--------|
|---------8--------------8h12------12-12--|
|-----------------------------------------|
|-----------------------------------------|
|-----------------------------------------|
|-----------------------------------------|
|
|  W
|-----------------------------------------|
|-----------------------------------------|
|-----------------------------------------|
|--2--------------------------------------|
|--2--------------------------------------|
|--0--------------------------------------|


  E5                                    G5
  |-----7-----| |----6----| |----6----| |----6----|
  S S S S S S S S S S S S S S S S S S S S S E   S S
|---------------------------------------------------|
|---------------------------------------------------|
|-4p0h4p0h4p0h4p0h4p0h4p0h4p0h4p0h4p0h4p0h4p0---5p0h|
|---------------------------------------------------|
|---------------------------------------------------|
|---------------------------------------------------|
|
| Q             H                       E     E
|---------------------------------------------------|
|---------------------------------------------------|
|---------------------------------------------------|
|-2-------------2-----------------------5-----------|
|-2-------------2-----------------------5-----------|
|-0-------------0-----------------------3-----------|


  C5                                  G5
  |---------11----------| |----------11-----------|
  E E E E E E   E E E E E E E E E E E   E E E   E E
|------------------------------------------------------|
|------------------------------------------------------|
|-5p0h5p0h5p0h==5p0h5p0h5p0h5p0h5p0h5p==0h5p0h==5p0----|
|------------------------------------------------------|
|------------------------------------------------------|
|------------------------------------------------------|
|
| Q           H                       E       E
|------------------------------------------------------|
|------------------------------------------------------|
|-5-----------5----------------------------------------|
|-5-----------5-----------------------5----------------|
|-3-----------3-----------------------5----------------|
|-------------------------------------3----------------|


  D5                              G5
  |-------10--------| |-----------11------------|
  E E E E E E E E E E E E E E E E   E  E E    E E
|-------------------------------------------------|
|-------------------------------------------------|
|-7p0h7p0h7p0h7p0h7p0h7p0-9p0h9p0h==9-11p0h==11p0-|
|-------------------------------------------------|
|-------------------------------------------------|
|-------------------------------------------------|
|
| Q         H                     E        E
|-------------------------------------------------|
|-------------------------------------------------|
|-------------------------------------------------|
|-7---------7-------------------------------------|
|-5---------5---------------------5---------------|
|---------------------------------3---------------|


  E5
    |-------7-------|
    S  S  S S  S S  S S S  S      +S   +Q..              S
|-------------------------------------------------------12--|
|-------------------------10b12==(10)-(10)r-----------------|
|-(12)p0h12p0h12p0h12p0-0-----------------------------------|
|-----------------------------------------------------------|
|-----------------------------------------------------------|
|-----------------------------------------------------------|
|
|   H                                   S   S S S S S S  S
|-----------------------------------------------------------|
|-----------------------------------------------------------|
|--------------------------------------/9---7---7-----------|
|---2-----------------------------------------9---9-8-7--5--|
|---2-------------------------------------------------------|
|---0-------------------------------------------------------|


  E5                                     G5
   |--3--|
   E  E  E  S  T  T  S  S  S  S  T  T  S  T  T  S  S  T  T
|----12----12h15p12----12----12h15p12----15p12----12h15p12-|
|-15----15----------15----15----------15-------15----------|
|----------------------------------------------------------|
|----------------------------------------------------------|
|----------------------------------------------------------|
|----------------------------------------------------------|
|
|  Q        H                             E        E
|----------------------------------------------------------|
|----------------------------------------------------------|
|----------------------------------------------------------|
|--2--------2-----------------------------5----------------|
|--2--------2-----------------------------5----------------|
|--0--------0-----------------------------3----------------|


  C5                                                 G5
   |------6-------|  |------6-------|  |-----5-----|  |------6-------|
   S  S  S  S  S  S  S  S  S  S  S  S  S  S  S  S  S  S  S  S  S  S  S
|----12----12h14p12----12----12h15p12-14p12----12----12h15p12-14p12-----|
|-15----15----------15----15----------------14----14----------------14--|
|-----------------------------------------------------------------------|
|-----------------------------------------------------------------------|
|-----------------------------------------------------------------------|
|-----------------------------------------------------------------------|
|
|  Q                 H                                E        E
|-----------------------------------------------------------------------|
|-----------------------------------------------------------------------|
|--5-----------------5--------------------------------------------------|
|--5-----------------5--------------------------------5-----------------|
|--3-----------------3--------------------------------5-----------------|
|-----------------------------------------------------3-----------------|


  D5                                                        G5
   |----5-----|  |-----5-----|
   S  S  S  S S  S  S  S  S  S  S      +S    T      +T    S  S  S  S  S
|-12-12-12h14------12----12---------------------------------------------|
|-------------x-15----12----15-15b17==(15)r-15b17==(15)r-15p12-15p12----|
|--------------------------------------------------------------------15-|
|-----------------------------------------------------------------------|
|-----------------------------------------------------------------------|
|-----------------------------------------------------------------------|
|
|  Q             H                                           E     E
|-----------------------------------------------------------------------|
|-----------------------------------------------------------------------|
|-----------------------------------------------------------------------|
|--7-------------7------------------------------------------------------|
|--5-------------5-------------------------------------------5----------|
|------------------------------------------------------------3----------|


  E5
         |--3--|
   S  S  S  S  S  S  S  S  S  S  S  Q.
|-----------------------------------------|
|-----------------------------------------|
|-14p12----12-----------------------------|
|-------14----14p12-----------------------|
|-------------------14p12-14p12p10--------|
|----------------------------------12----|
|
|  W
|-----------------------------------------|
|-----------------------------------------|
|-----------------------------------------|
|--2--------------------------------------|
|--2--------------------------------------|
|--0--------------------------------------|


 Verse 4  6:14
  Q=136
  E5/B    D/F#  G5             A5
  Gtr IV
  H.       Q     H     +E  S S  Q
|-------------|---------------------|
|-------------|---------------------|
|-9-----------|-12----(12)-----14--|
|-9-------12--|-12----(12)-x-x-14--|
|-7--------9--|-10----(10)-x-x-12--|
|-7-----------|---------------------|
|
| Gtr V
| H.       Q     H     +E  S S  Q
|-------------|---------------------|
|-------------|---------------------|
|-9-----------|-12----(12)-----14--|
|-9-------12--|-12----(12)-x-x-14--|
|-7--------9--|-10----(10)-x-x-12--|
|-7-----------|---------------------|


  D5          G5     E5/B
  Q.   S S Q   Q     H     S S S  S S  S S S
|------------------|-------------------------|
|------------------|-------------------------|
|-7--------7-------|-------------------------|
|-7----7-7-7---9---|-9----10-9-7----7--------|
|-5----5-5-5--10---|-7-----------10---10-9-7-|
|------------------|-7-----------------------|
|
| Q.   S S Q   Q     H     S S S  S S  S S S
|------------------|-------------------------|
|------------------|-------------------------|
|-7--------7-------|-------------------------|
|-7----7-7-7--12--|-9----10-9-7----7--------|
|-5----5-5-5--10--|-7-----------10---10-9-7-|
|------------------|-7-----------------------|


  E5/B    D/F#  G5             A5     D5          G5     E5/B C5
  H.       Q     H     +E  S S  Q     Q.   S S Q   Q     H     Q  Q
|-------------|---------------------|------------------|---------------|
|-------------|---------------------|------------------|---------------|
|-9-----------|-12----(12)-----14--|-7--------7-------|---------------|
|-9-------12--|-12----(12)-x-x-14--|-7----7-7-7---9---|-9-------------|
|-7--------9--|-10----(10)-x-x-12--|-5----5-5-5--10---|-7----10-------|
|-7-----------|---------------------|------------------|-7-----8--7----|
|
| H.       Q     H     +E  S S  Q     Q.   S S Q   Q     H     Q  Q
|-------------|---------------------|------------------|---------------|
|-------------|---------------------|------------------|---------------|
|-9-----------|-12----(12)-----14--|-7--------7-------|---------------|
|-9-------12--|-12----(12)-x-x-14--|-7----7-7-7--12--|-9-------------|
|-7--------9--|-10----(10)-x-x-12--|-5----5-5-5--10--|-7----10-------|
|-7-----------|---------------------|------------------|-7-----8--7----|


   Interlude 6:28
    E5                 G5    C5                   G5
    Gtr VI
    ~~
    H.                 Q      Q     E E   +E  E    Q
||-------------------------|---------------------------|
||o------------------------|---------------------------|
||---------------------7---|---------------------------|
||--9----------------------|-10-----9-7---(7)-9---10---|
||o------------------------|---------------------------|
||-------------------------|---------------------------|
|
|   Gtrs IV, V
|   E  S S E S S E S S Q      E S S E S S  E  S S  Q
||-------------------------|---------------------------|
||o------------------------|---------------------------|
||-------------------------|---------------------------|
||-------------------------|---------------------------|
||o-2------2-----2-----5--|--3-----3------3-------5--|
||--0--0-0-0-0-0-0-0-0-3--|--3-3-3-3-3-3--3--3-3--3--|


  D5                    G5      E5
                                 ~~
  Q     E  E    +E  E    E  E    W
|-----------------------------|---------------------------|
|-----------------------------|---------------------------|
|-----------------------------|---------------------------|
|-9-----7-----------7-------7-|-/9------------------------|
|---------10---(10)-----10----|---------------------------|
|-----------------------------|---------------------------|
|
| E S S E  S S   E  S S  Q       E S S E S S E S S E S S
|-----------------------------|---------------------------|
|-----------------------------|---------------------------|
|-----------------------------|---------------------------|
|-----------------------------|---------------------------|
|-5-----5--------5-------5---|--2-----2-----2-----2------|
|-5-5-5-5--5-5---5--5-5--3---|--0-0-0-0-0-0-0-0-0-0-0-0--|


  E5                 G5    C5                   G5
  ~~
  H.                 Q      Q     E E   +E  E    Q
|------------------------|---------------------------|
|------------------------|---------------------------|
|--------------------7---|---------------------------|
|-9----------------------|-10-----9-7---(7)-9---10---|
|------------------------|---------------------------|
|------------------------|---------------------------|
|
| E  S S E S S E S S Q      E S S E S S  E  S S  Q
|------------------------|---------------------------|
|------------------------|---------------------------|
|------------------------|---------------------------|
|------------------------|---------------------------|
|-2------2-----2-----5--|--3-----3------3-------5--|
|-0--0-0-0-0-0-0-0-0-3--|--3-3-3-3-3-3--3--3-3--3--|


                               1.                    2.
  D5                    G5      E5                    E5          C5 B5
                                ~~~~~~~~~~~~~~~~~~~~~~~~
  Q     E  E    +E  E    E  E   W                     W
|-----------------------------|--------------------||---------------------|
|-----------------------------|-------------------o||---------------------|
|-----------------------------|--------------------||---------------------|
|-9-----7-----------7---------|--------------------||---------------------|
|---------10---(10)-----10--9-|-7-----------------o||-7-------------------|
|-----------------------------|--------------------||---------------------|
|
| E S S E  S S   E  S S  Q      E S S E S S Q  Q      E S S E S S Q  Q
|-----------------------------|--------------------||---------------------|
|-----------------------------|-------------------o||---------------------|
|-----------------------------|--------------------||---------------------|
|-----------------------------|-------------2--2---||-------------5--4----|
|-5-----5--------5-------5---|-2-----2-----2--2--o||-2-----2-----3--2----|
|-5-5-5-5--5-5---5--5-5--3---|-0-0-0-0-0-0-0--0---||-0-0-0-0-0-0---------|


   Chorus 6:57
    Q=128
    Gtr IV
    S S S S E S S S S S S E S S
||------------------------------|
||o-8-7-5---5-5-7-8-7-5---5-5-5-|
||--------7-------------7-------|
||------------------------------|
||o-----------------------------|
||------------------------------|
|
|   Gtr V
|   S S S S E S S S S S S E S S
||------------------------------|
||o-----------------------------|
||------------------------------|
||--5-4-2---2-2-4-5-4-2---2-2-2-|
||o-------5-------------5-------|
||------------------------------|
|
|   Gtr VI
|   W
||------------------------------|
||o-----------------------------|
||------------------------------|
||------------------------------|
||o-----------------------------|
||------------------------------|


 1.                            2.
  E S S E S S S S S S E S S     E   S S E S S S S S S E S S
|----------------------------||------------------------------|
|-7-7-7-7-7-7-8-7-5---5-5-7-o||-7---7-7-7-7-7-8-7-5---5-5-7--|
|-------------------7--------||---------------------7--------|
|----------------------------||------------------------------|
|---------------------------o||------------------------------|
|----------------------------||------------------------------|
|
| E S S E S S S S S S E S S     E   S S E S S S S S S E S S
|----------------------------||------------------------------|
|---------------------------o||------------------------------|
|----------------------------||------------------------------|
|-4-4-4-4-4-4-5-4-2---2-2-4--||-4---4-4-4-4-4-5-4-2---2-2-4--|
|-------------------5-------o||---------------------5--------|
|----------------------------||------------------------------|
|
| W                             H..                     S S
|----------------------------||------------------------------|
|---------------------------o||------------------------------|
|----------------------------||---------------------------2--|
|----------------------------||-------------------------5----|
|---------------------------o||------------------------------|
|----------------------------||------------------------------|


                                     1.
    S S S S S S S S S S S S S S S S   S S S S S S S S S S S S S S S S
||----------------5-7-5-------------|----------------------------------||
||o-8-7---7-8---8-------8-7-8---8-8-|-8-7-----7---7-7-8-7-----------7-o||
||------9---------------------------|-----9-7-------------9-7-9---9----||
||----------------------------------|----------------------------------||
||o---------------------------------|---------------------------------o||
||----------------------------------|----------------------------------||
|
|   S S S S S S S S S S S S S S S S   S S S S S S S S S S S S S S S S
||----------------------------------|----------------------------------||
||o---------------------------------|---------------------------------o||
||----------------2-4-2-------------|----------------------------------||
||--5-4---4-5---5-------5-4-5---5-5-|-5-4-----4---4-4-5-4-----------4--||
||o-----7---------------------------|-----7-5-------------7-5-7---7---o||
||----------------------------------|----------------------------------||
|
|   S S S S S S S S S S S S S S S S   S S S S S S S S S S S S S S S S
||----------------------------------|----------------------------------||
||o---------------1-3-1-------------|---------------------------------o||
||--4-2---2-4---4-------4-2-4---4-4-|-4-2-----2---4-4-4-2-----------2--||
||------5---------------------------|-----5-4-------------5-4-5---5----||
||o---------------------------------|---------------------------------o||
||----------------------------------|----------------------------------||


 2.
  S S S S S S S S S S S S S S  S S
|-------------------------------------|
|-8-7-----7---7-7-8-7------------7----|
|-----9-7-------------9-7-9----9------|
|-------------------------------------|
|-------------------------------------|
|-------------------------------------|
|
| S S S S S S S S S S S S S S  S S
|-------------------------------------|
|-------------------------------------|
|-------------------------------------|
|-5-4-----4---4-4-5-4------------4----|
|-----7-5-------------7-5-7----7------|
|-------------------------------------|
|
| S S S S S S S S S S S S S E.
|-------------------------------------|
|-------------------------------------|
|-4-2-----2---4-4-4-2-----------------|
|-----5-4-------------5-4-5-----------|
|-------------------------------------|
|-------------------------------------|


    S S S S E S S S S S S E S S
||------------------------------|
||o-8-7-5---5-5-7-8-7-5---5-5-5-|
||--------7-------------7-------|
||------------------------------|
||o-----------------------------|
||------------------------------|
|
|   S S S S E S S S S S S E S S
||------------------------------|
||o-----------------------------|
||------------------------------|
||--5-4-2---2-2-4-5-4-2---2-2-2-|
||o-------5-------------5-------|
||------------------------------|
|
|   W
||------------------------------|
||o-----------------------------|
||------------------------------|
||------------------------------|
||o-----------------------------|
||------------------------------|


 1.                            2.
  E S S E S S S S S S E S S     E   S S E S S S S S S E S S
|----------------------------||------------------------------|
|-7-7-7-7-7-7-8-7-5---5-5-7-o||-7---7-7-7-7-7-8-7-5---5-5-7--|
|-------------------7--------||---------------------7--------|
|----------------------------||------------------------------|
|---------------------------o||------------------------------|
|----------------------------||------------------------------|
|
| E S S E S S S S S S E S S     E   S S E S S S S S S E S S
|----------------------------||------------------------------|
|---------------------------o||------------------------------|
|----------------------------||------------------------------|
|-4-4-4-4-4-4-5-4-2---2-2-4--||-4---4-4-4-4-4-5-4-2---2-2-4--|
|-------------------5-------o||---------------------5--------|
|----------------------------||------------------------------|
|
| W                             H..                     S S
|----------------------------||------------------------------|
|---------------------------o||------------------------------|
|----------------------------||---------------------------2--|
|----------------------------||-------------------------5----|
|---------------------------o||------------------------------|
|----------------------------||------------------------------|


                                     1.
    S S S S S S S S S S S S S S S S   S S S S S S S S S S S S S S S S
||----------------5-7-5-------------|----------------------------------||
||o-8-7---7-8---8-------8-7-8---8-8-|-8-7-----7---7-7-8-7-----------7-o||
||------9---------------------------|-----9-7-------------9-7-9---9----||
||----------------------------------|----------------------------------||
||o---------------------------------|---------------------------------o||
||----------------------------------|----------------------------------||
|
|   S S S S S S S S S S S S S S S S   S S S S S S S S S S S S S S S S
||----------------------------------|----------------------------------||
||o---------------------------------|---------------------------------o||
||----------------2-4-2-------------|----------------------------------||
||--5-4---4-5---5-------5-4-5---5-5-|-5-4-----4---4-4-5-4-----------4--||
||o-----7---------------------------|-----7-5-------------7-5-7---7---o||
||----------------------------------|----------------------------------||
|
|   S S S S S S S S S S S S S S S S   S S S S S S S S S S S S S S S S
||----------------------------------|----------------------------------||
||o---------------1-3-1-------------|---------------------------------o||
||--4-2---2-4---4-------4-2-4---4-4-|-4-2-----2---4-4-4-2-----------2--||
||------5---------------------------|-----5-4-------------5-4-5---5----||
||o---------------------------------|---------------------------------o||
||----------------------------------|----------------------------------||


 2.
  S S S S S S S S S S S S S S  S S
|-------------------------------------|
|-8-7-----7---7-7-8-7------------7----|
|-----9-7-------------9-7-9----9------|
|-------------------------------------|
|-------------------------------------|
|-------------------------------------|
|
| S S S S S S S S S S S S S S  S S
|-------------------------------------|
|-------------------------------------|
|-------------------------------------|
|-5-4-----4---4-4-5-4------------4----|
|-----7-5-------------7-5-7----7------|
|-------------------------------------|
|
| S S S S S S S S S S S S S E.
|-------------------------------------|
|-------------------------------------|
|-4-2-----2---4-4-4-2-----------------|
|-----5-4-------------5-4-5-----------|
|-------------------------------------|
|-------------------------------------|


    S S S S E S S S S S S E S S
||------------------------------|
||o-8-7-5---5-5-7-8-7-5---5-5-5-|
||--------7-------------7-------|
||------------------------------|
||o-----------------------------|
||------------------------------|
|
|   S S S S E S S S S S S E S S
||------------------------------|
||o-----------------------------|
||------------------------------|
||--5-4-2---2-2-4-5-4-2---2-2-2-|
||o-------5-------------5-------|
||------------------------------|
|
|   W
||------------------------------|
||o-----------------------------|
||------------------------------|
||------------------------------|
||o-----------------------------|
||------------------------------|


 1.                            2.
  E S S E S S S S S S E S S     E   S S E S S S S S S E S S
|----------------------------||------------------------------|
|-7-7-7-7-7-7-8-7-5---5-5-7-o||-7---7-7-7-7-7-8-7-5---5-5-7--|
|-------------------7--------||---------------------7--------|
|----------------------------||------------------------------|
|---------------------------o||------------------------------|
|----------------------------||------------------------------|
|
| E S S E S S S S S S E S S     E   S S E S S S S S S E S S
|----------------------------||------------------------------|
|---------------------------o||------------------------------|
|----------------------------||------------------------------|
|-4-4-4-4-4-4-5-4-2---2-2-4--||-4---4-4-4-4-4-5-4-2---2-2-4--|
|-------------------5-------o||---------------------5--------|
|----------------------------||------------------------------|
|
| W                             H..                     S S
|----------------------------||------------------------------|
|---------------------------o||------------------------------|
|----------------------------||---------------------------2--|
|----------------------------||-------------------------5----|
|---------------------------o||------------------------------|
|----------------------------||------------------------------|


    S S S S S S S S S S S S S S S S
||----------------5-7-5-------------|
||o-8-7---7-8---8-------8-7-8---8-8-|
||------9---------------------------|
||----------------------------------|
||o---------------------------------|
||----------------------------------|
|
|   S S S S S S S S S S S S S S S S
||----------------------------------|
||o---------------------------------|
||----------------2-4-2-------------|
||--5-4---4-5---5-------5-4-5---5-5-|
||o-----7---------------------------|
||----------------------------------|
|
|   S S S S S S S S S S S S S S S S
||----------------------------------|
||o---------------1-3-1-------------|
||--4-2---2-4---4-------4-2-4---4-4-|
||------5---------------------------|
||o---------------------------------|
||----------------------------------|


 1.                                  2.
  S S S S S S S S S S S S S S S S     S S S S S S S S S S S S E E
|----------------------------------||------------------------------|
|-8-7-----7---7-7-8-7-----------7-o||-8-7-----7---7-7-8-7----------|
|-----9-7-------------9-7-9---9----||-----9-7-------------9-7-9-7--|
|----------------------------------||------------------------------|
|---------------------------------o||------------------------------|
|----------------------------------||------------------------------|
|
| S S S S S S S S S S S S S S S S     S S S S S S S S S S S S E E
|----------------------------------||------------------------------|
|---------------------------------o||------------------------------|
|----------------------------------||------------------------------|
|-5-4-----4---4-4-5-4-----------4--||-5-4-----4---4-4-5-4-------7--|
|-----7-5-------------7-5-7---7---o||-----7-5-------------7-5-7-5--|
|----------------------------------||------------------------------|
|
| S S S S S S S S S S S S S S S S     S S S S S S S S S S S S E E
|----------------------------------||------------------------------|
|---------------------------------o||------------------------------|
|-4-2-----2---4-4-4-2-----------2--||-4-2-----2---4-4-4-2----------|
|-----5-4-------------5-4-5---5----||-----5-4-------------5-4-5-7--|
|---------------------------------o||------------------------------|
|----------------------------------||------------------------------|


  Q=124
  E5      D5   E5      D5
  H.      Q    H.      Q
|------------|------------|
|---------8--|------------|
|-9----------|-9-------7--|
|---------5--|------------|
|-7----------|-7-------5--|
|------------|------------|
|
| H.      Q    H.      Q
|------------|------------|
|------------|------------|
|------------|------------|
|-9-------7--|-9-------7--|
|-7-------5--|-7-------5--|
|------------|------------|
|
| H.      Q    H.      Q
|------------|------------|
|------------|------------|
|---------7--|-4----------|
|-9----------|-5-------4--|
|------------|------------|
|------------|------------|


 Outro 7:46
  Q=144
  Em              D/F#              D                C
 3/4
   H.             +H.               +H.              H.
|---------------|-----------------|----------------|--------------|
|---------------|-----------------|----------------|--------------|
|-/9------------|-(9)-------------|-(9)------------|--------------|
|---------------|-----------------|----------------|--------------|
|-/7------------|-(7)-------------|-(7)------------|--------------|
|---------------|-----------------|----------------|--------------|
|
|                 Gtr III
|  H.              H.                Q.      E Q     H.
|---------------|-----------------|----------------|--------------|
|---------------|--7--------------|--8------10-8---|--------------|
|---------------|-----------------|----------------|-9------------|
|--5------------|-----------------|----------------|--------------|
|--7------------|-----------------|----------------|--------------|
|---------------|-----------------|----------------|--------------|
|
| Gtr II
|  E  E E E E E    E   E E  E E E    E  E E  E E E   E  E E E E E
|---------------|-----------------|----------------|--------------|
|---------------|-----------------|----------------|--------------|
|---------------|-----------------|----------------|--------------|
|-----9---9-----|-----12---12-----|-----7----7-----|----5---5-----|
|--7----7---7---|--9-----9----9---|--5----5----5---|-3----3---3---|
|---------------|-----------------|----------------|--------------|


                D               Em
  Gtr III
  Q   Q   Q      Q.     E Q     H.             +H.
|-----7---7---|---------------|--------------|---------------|
|-------------|-10------8-7---|--------------|---------------|
|-------------|---------------|-9------------|-(9)-----------|
|-------------|---------------|--------------|---------------|
|-------------|---------------|--------------|---------------|
|-------------|---------------|--------------|---------------|
|
| Gtr II
| E E E E E E    E  E E E E E   E  E E E E E    E  E E E E E
|-------------|---------------|--------------|---------------|
|-------------|---------------|--------------|---------------|
|-------------|---------------|--------------|---------------|
|---5---5-----|-----7---7-----|----9---9-----|-----9---9-----|
|-3---3---3---|--5----5---5---|-7----7---7---|--7----7---7---|
|-------------|---------------|--------------|---------------|


  Em             D/F#               D               A
  Q    Q   Q      Q.       E  Q     Q.      E Q      H.
|------7---7---|-10--------7------|---------------|----------------|
|--------------|-------------10---|-8------10-8---|----------------|
|--------------|------------------|---------------|--9-------------|
|--------------|------------------|---------------|----------------|
|--------------|------------------|---------------|----------------|
|--------------|------------------|---------------|----------------|
|
| E  E E E E E    E   E E  E  E E   E  E E  E E E    E  E  E E E E
|--------------|------------------|---------------|----------------|
|--------------|------------------|---------------|----------------|
|--------------|------------------|---------------|----------------|
|----9---9-----|-----12---12------|----7----7-----|--------7-------|
|-7----7---7---|--9-----9-----9---|-5----5----5---|-----7----7-----|
|--------------|------------------|---------------|--5---------5---|
|
| Gtr I
| H.              H.                H.               E  E  H
|--------------|------------------|---------------|----------------|
|--------------|------------------|---------------|-10-------------|
|-9------------|-12---------------|-7-------------|--9--9----------|
|-9------------|-12---------------|-7-------------|-11----11-------|
|--------------|-10---------------|---------------|----------------|
|--------------|------------------|---------------|----------------|


  C              D               Em
  Q    E E Q      Q.     E Q     H.             +H.
|------7---7---|---------------|--------------|---------------|
|--------------|-10------8-7---|--------------|---------------|
|--------------|---------------|-9------------|-(9)-----------|
|--------------|---------------|--------------|---------------|
|--------------|---------------|--------------|---------------|
|--------------|---------------|--------------|---------------|
|
| E  E E E E E    E  E E E E E   E  E E E E E    E  E E E E E
|--------------|---------------|--------------|---------------|
|--------------|---------------|--------------|---------------|
|--------------|---------------|--------------|---------------|
|----5---5-----|-----7---7-----|----9---9-----|-----9---9-----|
|-3----3---3---|--5----5---5---|-7----7---7---|--7----7---7---|
|--------------|---------------|--------------|---------------|
|
| H.              H.             H.             +H.
|--------------|---------------|--------------|---------------|
|--------------|---------------|--------------|---------------|
|-5------------|--7------------|--------------|---------------|
|-5------------|--7------------|-9------------|-(9)-----------|
|-3------------|--5------------|--------------|---------------|
|--------------|---------------|--------------|---------------|


  Em               D/F#                D                C
  Gtr III
  E   E E  E E E    E   E  E  E  E E   E   E E  E E E   E  E E E E E
|----------------|-------------------|----------------|--------------|
|----12---12-----|-----15----15------|----10---10-----|----8---8-----|
|-9-----9----9---|-11-----11----11---|-7-----7----7---|-5----5---5---|
|-----9----9-----|-----12----12------|-----7----7-----|----5---5-----|
|-7-----7----7---|--9------9-----9---|-5-----5----5---|-3----3---3---|
|----------------|-------------------|----------------|--------------|
|
| Gtr I
| H.                H.                 H.               H.
|----------------|-------------------|----------------|--------------|
|----------------|-------------------|----------------|--------------|
|-9--------------|-12----------------|-7--------------|-5------------|
|-9--------------|-12----------------|-7--------------|-5------------|
|-7--------------|-10----------------|----------------|--------------|
|----------------|-------------------|----------------|--------------|
|
| Gtr II
| E   E E  E E E    E   E  E  E  E E   E   E E  E E E   E  E E E E E
|----------------|-------------------|----------------|--------------|
|----------------|-------------------|----------------|--------------|
|----------------|-------------------|----------------|--------------|
|-----9----9-----|-----12----12------|-----7----7-----|----5---5-----|
|-7-----7----7---|--9------9-----9---|-5-----5----5---|-3----3---3---|
|----------------|-------------------|----------------|--------------|


  C              D                Em
  E  E E E E E   E   E E  E E E   E   E E  E E E    E   E E  E E E
|--------------|----------------|----------------|-----------------|
|----8---8-----|----10---10-----|----12---12-----|-----12---12-----|
|-5----5---5---|-7-----7----7---|-9-----9----9---|--9-----9----9---|
|----5---5-----|-----7----7-----|-----9----9-----|------9----9-----|
|-3----3---3---|-5-----5----5---|-7-----7----7---|--7-----7----7---|
|--------------|----------------|----------------|-----------------|
|
| H.             H.               H.               +H.
|--------------|----------------|----------------|-----------------|
|--------------|----------------|----------------|-----------------|
|-5------------|-7--------------|-9--------------|-(9)-------------|
|-5------------|-7--------------|-9--------------|-(9)-------------|
|-3------------|-5--------------|-7--------------|-(7)-------------|
|--------------|----------------|----------------|-----------------|
|
| E  E E E E E   E   E E  E E E   E   E E  E E E    E   E E  E E E
|--------------|----------------|----------------|-----------------|
|--------------|----------------|----------------|-----------------|
|--------------|----------------|----------------|-----------------|
|----5---5-----|-----7----7-----|-----9----9-----|------9----9-----|
|-3----3---3---|-5-----5----5---|-7-----7----7---|--7-----7----7---|
|--------------|----------------|----------------|-----------------|


  Em               D/F#                D                A
  E   E E  E E E    E   E  E  E  E E   E   E E  E E E   E  E  E E E E
|----------------|-------------------|----------------|---------------|
|----12---12-----|-----15----15------|----10---10-----|------10-------|
|-9-----9----9---|-11-----11----11---|-7-----7----7---|----9----9-----|
|-----9----9-----|-----12----12------|-----7----7-----|-7-----7---7---|
|-7-----7----7---|--9------9-----9---|-5-----5----5---|----7----7-----|
|----------------|-------------------|----------------|-5---------5---|
|
| H.                H.                 H.               H.
|----------------|-------------------|----------------|---------------|
|----------------|-------------------|----------------|---------------|
|-9--------------|-12----------------|-7--------------|-6-------------|
|-9--------------|-12----------------|-7--------------|-7-------------|
|-7--------------|-10----------------|----------------|-7-------------|
|----------------|-------------------|----------------|---------------|
|
| E   E E  E E E    E   E  E  E  E E   E   E E  E E E   E  E  E E E E
|----------------|-------------------|----------------|---------------|
|----------------|-------------------|----------------|---------------|
|----------------|-------------------|----------------|---------------|
|-----9----9-----|-----12----12------|-----7----7-----|-------7-------|
|-7-----7----7---|--9------9-----9---|-5-----5----5---|----7----7-----|
|----------------|-------------------|----------------|-5---------5---|


  H.=H                                                      Q=50
  C              D                Em
  E  E E E E E   E   E E  E E E   Q.       E +S  E.    E. S +H
|--------------|----------------|-------------------|-----0-(0)----*|
|----8---8-----|----10---10-----|-------------------|--0-----------*|
|-5----5---5---|-7-----7----7---|----------------0--|--------------*|
|----5---5-----|-----7----7-----|----------2-(2)----|--------------*|
|-3----3---3---|-5-----5----5---|-------------------|--------------*|
|--------------|----------------|-------------------|--------------*|
|
| H.             H.               H.                  +H.
|--------------|----------------|-------------------|--------------*|
|--------------|----------------|-------------------|--------------*|
|-5------------|-7--------------|-9-----------------|-(9)----------*|
|-5------------|-7--------------|-9-----------------|-(9)----------*|
|-3------------|-5--------------|-7-----------------|-(7)----------*|
|--------------|----------------|-------------------|--------------*|
|
| E  E E E E E   E   E E  E E E   E  S S H            +H.
|--------------|----------------|-------------------|--------------*|
|--------------|----------------|--------0----------|-(0)----------*|
|--------------|----------------|------0------------|--------------*|
|----5---5-----|-----7----7-----|-2--2--------------|--------------*|
|-3----3---3---|-5-----5----5---|-------------------|--------------*|
|--------------|----------------|-------------------|--------------*|




--------------------------------------------------------------------------------


Duration Legend
---------------
W - whole; H - half; Q - quarter; E - 8th; S - 16th; T - 32nd; X - 64th; a - acciaccatura
+ - note tied to previous; . - note dotted; .. - note double dotted
Uncapitalized letters represent notes that are staccato (1/2 duration)
Irregular groupings are notated above the duration line
Duration letters will always appear directly above the note/fret number it represents the
duration for.  Duration letters with no fret number below them represent rests.  Multi-
bar rests are notated in the form Wxn, where n is the number of bars to rest for.  Low
melody durations appear below the staff

Tablature Legend
----------------
 h   - hammer-on
 p   - pull-off
 b   - bend
 pb  - pre-bend
 r   - bend release (if no number after the r, then release immediately)
 /  - slide into or out of (from/to "nowhere")
 s   - legato slide
 S   - shift slide
 - natural harmonic
[n]  - artificial harmonic
n(n) - tapped harmonic
 ~   - vibrato
 tr  - trill
 T   - tap
 TP  - trem. picking
 PM  - palm muting
n/  - tremolo bar dip; n = amount to dip
 n  - tremolo bar down
 n/  - tremolo bar up
/n  - tremolo bar inverted dip
 =   - hold bend; also acts as connecting device for hammers/pulls
  - volume swell (louder/softer)
 x   - on rhythm slash represents muted slash
 o   - on rhythm slash represents single note slash

Misc Legend
-----------
 |  - bar
||  - double bar
||o - repeat start
o|| - repeat end
*|  - double bar (ending)
 :  - bar (freetime)
 $  - Segno
 &  - Coda
Tempo markers -  = BPM(8/16=s8/s16), where s8 = swing 8ths, s16 = swing 16ths
Comments