Iron Maiden - Dance Of Death Chords & Tabs

 

Dance Of Death Chords & Tabs

Iron Maiden Chords & Tabs

Version: 3 Type: Tab 0 ratings
1 star 2 stars 3 stars 4 stars 5 stars
comments

Dance Of Death Tab

   
IRON MAIDEN
DANCE OF DEATH
WRITTEN BY STEVE HARRIS AND ADRIAN SMITH
TAKEN FROM THE ALBUM DANCE OF DEATH

INTRO/ACOUSTIC
riff a
 E5         F#5            D5          C5                      D5          E5
|--------------------------------------------------------------------------------------------------|
|--------------------------------------------------------------------------------------------------|
|--------------------------------------------------------------------------------------------------|
|---9---9-------12---12-------7---7-------5---5-------5---5-------7---7-------9---9-------9---9----|
|-7---7---7---9----9----9---5---5---5---3---3---3---3---3---3---5---5---5---7---7---7---7---7---7--|
|--------------------------------------------------------------------------------------------------|

gtr. II w/ riff a
|--------------------------------7--7-----------------|-7--7--10---7---------------------7--7------------------|
|---------7----8----10--8--7------------10----8--7----|--------------10--8---10--8--------------10----8--7-----|
|-9-------------------------------------------------9-|-----------------------------9-----------------------9--|
|-----------------------------------------------------|--------------------------------------------------------|
|-----------------------------------------------------|--------------------------------------------------------|
|-----------------------------------------------------|--------------------------------------------------------|

VERSE 1 with riff a 4 times
"let me tell you a story...."
[ Tab from: http://www.guitartabs.cc/tabs/i/iron_maiden/dance_of_death_tab_ver_3.html ]
riff b ("feeling scared, and i fell to my knees...")
|-------------------------------------------------------------------------------------------------------|
|-------------------------------------------------------------------------------------------------------|
|-------------------------------------------------------------------------------------------------------|
|-9-9-9-9-9-9-12-12-12-12-12-12-7-7-7-7-7-7-5-5-5-5-5-5-5-5-5-5-5-5-7-7-7-7-7-7-9-9-9-9-9-9-9-9-9-9-9-9-|
|-7-7-7-7-7-7--9--9--9--9--9--9-5-5-5-5-5-5-3-3-3-3-3-3-3-3-3-3-3-3-5-5-5-5-5-5-7-7-7-7-7-7-7-7-7-7-7-7-|
|-------------------------------------------------------------------------------------------------------|
palm mute

sorry-i couldnt figure out the chord section

BRIDGE (CLEAN-THEN DISTORTED)
|-----------------------------------------------------------------------------------------|
|-----------------------------------------------------------------------------------------|
|----11-12p11---------------11-12p11---------------11-12p11------------------11--11-11-11-|
|-14----------14-12-14---14----------14-12-14---14----------14-12-14---14-14--------------|
|-----------------------------------------------------------------------------------------|
|-----------------------------------------------------------------------------------------|

i just tabbed the main part of the bridge, you can probably figure out 
some of the variations off of that. the rest, during the singing is just 
made up of the previous chords and should be easy enough to figure out.
up the irons...

check out my other maiden tabs:
charlotte the harlot
phantom of the opera (full)
wrathchild (second version on this site)
prowler
sanctuary
         and more to come...
Comments