Iron Maiden - Dance Of Death Chords & Tabs

 

Dance Of Death Chords & Tabs

Iron Maiden Chords & Tabs

Version: 10 Type: Tab 0 ratings
1 star 2 stars 3 stars 4 stars 5 stars
comments

Dance Of Death Tab

Key
---
qb = quarter bend
hb = half bend
b = full bend
r = return from bend
t = tap
PM = palm mute
trip = triplet
[7] = natural harmonic
<6> = artificial harmonic

Guitar solo 1 (this comes in at about 4:30)
e|-------------------------------------------------------------------------|
b|-------------------------------------------------------------------------|
G|---------------7--9~~----------------------------------------------------|
D|--5~~~~~--7/9---------7~~--5---5------------------10-9-7----7------------|
A|-----------------------------7-----7--5-----/7~~---------10---10-9-7-----|
E|-----------------------------------------7-------------------------------|

e|-----------------12-14-15-14-12----12----------------------12-----------------------------------|
b|-15b(17)-15b(17)----------------15----15qbp12-----------12----15p12---------12------------------|
G|------------------------------------------------14b(16)-------------14b(16)----14p12-----/14~~--|
D|--------------------------------------------------------------------------------------14--------|
A|------------------------------------------------------------------------------------------------|
E|------------------------------------------------------------------------------------------------|


e|------------------------|
b|------------------------|
G|-12-11------------------|
D|-------12-----14~~~~----|
A|----------12------------|
E|------------------------|

     trip. 
e|------------15h19p15---------15h19p15-----------15h19p15----------15h19p15------------|
b|--17-17-17----------19p15h19---------15-15-15h17---------19p15h19------------19p15h19-|
G|--------------------------------------------------------------------------------------|
D|--------------------------------------------------------------------------------------|
A|--------------------------------------------------------------------------------------|
E|--------------------------------------------------------------------------------------|

e|-19p15----------15h19p15-----------15------19-19b(20)-19b(21)--\12------|
b|-------19p15h19----------19p15h19---------------------------------------|
G|---------------------------------------16-------------------------------|
D|------------------------------------------------------------------------|
A|------------------------------------------------------------------------|
E|------------------------------------------------------------------------|

e|-----------------------------------------------------------------------------------|
b|-15b(17)~--15b(17)~--15b(17)--15--12-----------------------------------------------|
G|-------------------------------------14b(16)-14--12qbr-----12----------------------|
D|--------------------------------------------------------14-------------------------|
A|---------------------------------------------------------------14-13-12-10---------|
E|----------------------------------------------------------------------------12~~~~-|

                                                   NH
e|-5h7--t10p5-t10p7-t12p7p5----5h7p6p5--------5-5--[7]---15-17-15-14-15-14----14-------------------|
b|--------------------------8------------8p5-----------0-------------------17----17-15--17/20-17~~-|
G|-------------------------------------------------------------------------------------------------|
D|-------------------------------------------------------------------------------------------------|
A|-------------------------------------------------------------------------------------------------|
E|-------------------------------------------------------------------------------------------------|


e|----------------------17-------17-19----17-19-20-20b(22)~~~-----|
b|-17-19-20-19-17-19-19----19-20-------20-------------------------|
G|----------------------------------------------------------------|
D|----------------------------------------------------------------|
A|----------------------------------------------------------------|
E|----------------------------------------------------------------|


Guitar solo 2 - comes right after solo 1 at around 5:00
                          * = whammy dive half a step
           AH  AH  AH
e|---------------------------------------------5h7p5--5-7-------------------------------------|
b|------------------------*------------------5------------9-9-10-9----------------------------|
G|--/6--6--<6>-<6>-<6>--(<6>)\/\/~~----/4--2-----------------------11-9-11-9\7-9-7-9-7\6--7/9-|
D|--------------------------------------------------------------------------------------------|
A|--------------------------------------------------------------------------------------------|
E|--------------------------------------------------------------------------------------------|

e|------------9-------------------------------------------------------------------|
b|----9-10-12---12b(14)-r12\---------10h12p10\9--10----9h10p9---------------------|
G|-11----------------------------11-----------------11--------11p9-9-9--9b(11)r9\-|
D|----------------------------11--------------------------------------------------|
A|--------------------------------------------------------------------------------|
E|--------------------------------------------------------------------------------|
[ Tab from: http://www.guitartabs.cc/tabs/i/iron_maiden/dance_of_death_tab_ver_10.html ]
e|-14----------14-17p14-16p14----------------------|
b|----14-17qb~----------------17b(19)--16--17-14---|
G|-------------------------------------------------|
D|-------------------------------------------------|
A|-------------------------------------------------|
E|-------------------------------------------------|
                                                                                                   whammy dive if you like
e|-----------------------------------------------------------------------------------------------------------|
b|---------14-17p14-17p14-14-17p14-14-14-14-17p14-17p14-13-15-14-13-14-13-12-10-12b(13)-10--12b(14)-r12~~~\--|
G|-16b(18)---------------------------------------------------------------------------------------------------|
D|-----------------------------------------------------------------------------------------------------------|
A|-----------------------------------------------------------------------------------------------------------|
E|-----------------------------------------------------------------------------------------------------------|


Interlude
---------

Lead
e|-------------------------------------------------------------|
b|-------------------------------------------------------------|
G|---------9---------------------------------------------------|
D|-11~~~~----12--11--9--11--12--11--9-----9-----9--/11~~~------|
A|------------------------------------12-----12----------------|
E|-------------------------------------------------------------|

e|-------------------------------------------------------------|
b|-------------------------------------------------------------|
G|---------9---------------------------------------------------|
D|-11~~~~----12--11--9--11--12--11--9-----9--------------------|
A|------------------------------------12-----12-11-9~~~--------|
E|-------------------------------------------------------------|


Guitar Solo 3
e|--------------------------------------------------------------------------------------15b(17)~--|
b|-15b(17)~--15-13-12-13-12--13p10h12p10h12--13p12p10---------------------------------------------|
G|----------------------------------------------------14p12p11--9--9p7p5---5----------------------|
D|-----------------------------------------------------------------------5---7p5------------------|
A|-------------------------------------------------------------------------------7-7-7\-----------|
E|------------------------------------------------------------------------------------------------|

e|--15-14------------------------------------------------------------------------|
b|--------17----17-15-15-14-12----12---------------------------------------------|
G|-----------16----------------15----15-14-12----12------------------------------|
D|--------------------------------------------14----14-13-12----12---------------|
A|-----------------------------------------------------------14----14-12-10\-----|
E|-------------------------------------------------------------------------------|

e|--7-8-----------------------------------------------------------------7-7h10p8p7--|
b|------12-t13p12p8h12--t13p0h8h12p8-----------t12p8--15p13p0--8h12p8---------------|
G|-----------------------------------10---------------------------------------------|
D|--------------------------------------x-------------------------------------------|
A|--------------------------------------x-7-----------------------------------------|
E|----------------------------------------------------------------------------------|

e|----------7h10p8p7-----7h8h10--7h10p7p0--7h8h10p8----8h12p8----8h10p8----8h12p8---|
b|-8h12p8p0----------8p0----------------------------10--------10--------10----------|
G|----------------------------------------------------------------------------------|
D|----------------------------------------------------------------------------------|
A|----------------------------------------------------------------------------------|
E|----------------------------------------------------------------------------------|

e|-17-17-16-16-15-14--12p10p7---7h10p8p7--7-7------10p8---------|
b|----------------------------8---------------8h12------12-12~--|
G|--------------------------------------------------------------|
D|--------------------------------------------------------------|
A|--------------------------------------------------------------|
E|--------------------------------------------------------------|

e|-------------------------------------------------------------------------------|
b|-------------------------------------------------------------------------------|
G|-4p0h4p0h4p0h4p0h4p0h4p0h4p0h4p0h4p0h4-5p0h5p0h5p0h5p0h5p0h5p0h5p0h5p0h5-------|
D|-------------------------------------------------------------------------------|
A|-------------------------------------------------------------------------------|
E|-------------------------------------------------------------------------------|

e|-----------------------------------------------------------------------------------------------|
b|------------------------------------------------------------------------------------10b(12)~~~-|
G|-7p0h7p0h7p0h7p0h7p0h7p0h7p0h7p0h7p0h7-0-9p0h9p0h9-11p0-11p0-12p0h12p0h12p0h12p0--0------------|
D|-----------------------------------------------------------------------------------------------|
A|-----------------------------------------------------------------------------------------------|
E|-----------------------------------------------------------------------------------------------|

e|--------12----12h15p12----12----12h15p12----15p12----12h15p12----12-----12h14p12------12-------|
b|--12-15----15----------15----15----------15-------15----------15----15------------15-----15----|
G|-----------------------------------------------------------------------------------------------|
D|-----------------------------------------------------------------------------------------------|
A|-----------------------------------------------------------------------------------------------|
E|-----------------------------------------------------------------------------------------------|

e|--12h15p12-14p12-----12-12-12h14-------12----12---------------------------------------|
b|-----------------14--------------15-15----15----15-15b(17)-15b(17)-15p12-15p12--------|
G|---------------------------------------------------------------------------------15---|
D|--------------------------------------------------------------------------------------|
A|--------------------------------------------------------------------------------------|
E|--------------------------------------------------------------------------------------|

e|---------------------------------------------|
b|---------------------------------------------|
G|-14p12----12---------------------------------|
D|-------14----14p12---------------------------|
A|-------------------14p12-14p12p10------------|
E|-----------------------------------12~~~\----|
Comments