Iron Maiden - Dance Of Death Chords & Tabs

 

Dance Of Death Chords & Tabs

Iron Maiden Chords & Tabs

Version: 1 Type: Bass Tab 0 ratings
1 star 2 stars 3 stars 4 stars 5 stars
comments

Dance Of Death Bass Tab

                                      DANCE OF DEATH
                                       IRON MAIDEN
                            FROM THE ALBUM " DANCE OF DEATH "
                                         BASS TAB
                      TRANSCRIBED BY DARGOR ( dargor_k@hotmail.com )


                -------------------------------------------------
                |  :    REPEAT          |  h    HAMMER ON       |
                |  /    SLIDE UP        |  p    PULL OFF        |
                |  \    SLIDE DOWN      | ( )   HARMINICS       |
                |  >    ACCENT          |  ~    STRING BEND     |
                |  .    STACATTO        |  +    LET RING        |
                -------------------------------------------------


------------------|-----------------7---7------------------------------------------------
------------------|.---9---9------5---5---5------7---7--------5---5--------5---5--------7
------------------|.-7---7---7-----------------5---5---5----3---3---3----3---3---3----5--
------------------|----------------------------------------------------------------------
  Guitar intro

---------------------------------------------------7---7---------------------------------
---7--------9---9--------9---9--------9---9------5---5---5------7---7---------7---------5
-5---5----7---7---7----7---7---7----7---7---7-----------------5---5---5-----7---7-----3--
--------------------------------------------------------------------------5-------5------

-------------------------------------------------|--9-9-9-9-9-9--12-12-12-12-12--7-7-7-7-
---5--------7---7--------9---9--------9---9-----.|.-9-9-9-9-9-9--12-12-12-12-12--7-7-7-7-
-3---3----5---5---5----7---7---7----7---7---7---.|.--------------------------------------
-------------------------------------------------|---------------------------------------
                        play 3 times                 a little faster
                    at second lyrics enter

7--5-5-5-5-5-5--5-5-5-5-5-5--7-7-7-7-7-7--9-9-9-9-9-9--9-9-9-9-9-9--9-9-9-9-9-9--12-12-12
7--5-5-5-5-5-5--5-5-5-5-5-5--7-7-7-7-7-7--9-9-9-9-9-9--9-9-9-9-9-9--9-9-9-9-9-9--12-12-12
-----------------------------------------------------------------------------------------
-----------------------------------------------------------------------------------------

12-12--7-7-7-7-7-7--2-2-2-2-2-2--5-5-5-5-5-5--7-7-7-7-7-7--9-9-9-9-9-9--9-9-9-9-9-9---|
12-12--7-7-7-7-7-7--2-2-2-2-2-2--5-5-5-5-5-5--7-7-7-7-7-7--9-9-9-9-9-9--9-9-9-9-9-9--.|
-------------------------------------------------------------------------------------.|
--------------------------------------------------------------------------------------|

-9---9---9---9---9---9---9---9---|--9--9---12--12---7--7---5--5---5--5---7--7---9--9--9--
-9---9---9---9---9---9---9---9---|.-9--9---12--12---7--7---5--5---5--5---7--7---9--9--9--
-7---7---7---7---7---7---7---7---|.-7--7---10--10---5--5---3--3---3--3---5--5---7--7--7--
---------------------------------|-------------------------------------------------------
 slower

9--9--9---12--12---7--7---2--2---5--5---7--7---9--9--9--9---|-9--9---12--12---7--7---5--5
9--9--9---12--12---7--7---2--2---5--5---7--7---9--9--9--9--.|-9--9---12--12---7--7---5--5
7--7--7---10--10---5--5---0--0---3--3---5--5---7--7--7--7--.|-7--7---12--12---5--5---3--3
------------------------------------------------------------|----------------------------

                                                                      +
---5--5---7--7---9--9--9--9--9--9---12--12---7--7---5--5----5----7----9------------------
---5--5---7--7---9--9--9--9--9--9---12--12---7--7---5--5----5----7----9------------------
---3--3---5--5---7--7--7--7--7--7---10--10---5--5---3--3----3----5----7------------------
-----------------------------------------------------------------------------------------
                                                                               guitar

|---------------------------------------------------------------|--9---------------------
|.-------------------------------------------------------------.|.-9------------------.--
|.-7-9-10-9-7-5-7--7-9-10-9-7-5-7--7-7-9-9-9-9--7-9-10-9-7-5-7-.|.-7--7-7-7--7-7-7--7-9--
|---------------------------------------------------------------|------------------------
    faster                                       play 6 times      a little slower

12------------------------.-7------------------.-9---------------------------------9-----
12----------------------5-7-7------------------5-9----------------10-9-7-9-10-9-7--9-----
10--10-10-10--10-10-10------5--5-5-5--5-5-5--5---7--7-7-7--7-7-7-------------------7--7-7
-----------------------------------------------------------------------------------------

---------------12------------------------.-7------------------.-9-----------------.-.---|
-------------.-12----------------------5-7-7------------------5-9----------------10-9--.|
-7--7-7-7--7-9-10--10-10-10--10-10-10------5--5-5-5--5-5-5--5---7--7-7-7--7-7-7--------.|
----------------------------------------------------------------------------------------|

|---------------------------------------------------------------|--9---------------------
|.-------------------------------------------------------------.|.-9------------------.--
|.-7-9-10-9-7-5-7--7-9-10-9-7-5-7--5-7-9-9-9-9--9-9-10-9-7-5-7-.|.-7--7-7-7--7-7-7--7-9--
|---------------------------------------------------------------|------------------------
                                              play 8 times         guitar solo 1

12------------------------.-7------------------.-9---------------------------------9-----
12----------------------5-7-7------------------5-9----------------10-9-7-9-10-9-7--9-----
10--10-10-10--10-10-10------5--5-5-5--5-5-5--5---7--7-7-7--7-7-7-------------------7--7-7
-----------------------------------------------------------------------------------------
[ Tab from: http://www.guitartabs.cc/tabs/i/iron_maiden/dance_of_death_btab.html ]
---------------12------------------------.-7------------------.-9-----------------.-.---|
-------------.-12----------------------5-7-7------------------5-9----------------10-9--.|
-7--7-7-7--7-9-10--10-10-10--10-10-10------5--5-5-5--5-5-5--5---7--7-7-7--7-7-7--------.|
----------------------------------------------------------------------------------------|

|--11------------------.--7------------------.--9------------------.--11-----------------
|.-11------------------7--7------------------7--9------------------7--11-----------------
|.--9--9-9-9--9-9-9--9----5--5-5-5--5-5-5--5----7--7-7-7--7-7-7--7-----9--9-9-9--9-9-9---
|----------------------------------------------------------------------------------------
   guitar solo 2 
   and interlude

--------|--9------------------.--5------------------.--7------------------.--9-----------
-------.|.-9------------------5--5------------------5--7------------------5--9-----------
9-9-9--.|.-7--7-7-7--7-7-7--7----3--3-3-3--3-3-3--3----5--5-5-5--5-5-5--5----7--7-7-7--7-
--------|--------------------------------------------------------------------------------
 play 4     guitar solo 3
 times

-------------|-9---------------------12------------------------.--7------------------.---
------------.|-9------------------.--12----------------------5-7--7------------------7---
7-7--7-7-7--.|-7--7-7-7--7-7-7--7-9--10--10-10-10--10-10-10-------5--5-5-5--5-5-5--5-----
-------------|---------------------------------------------------------------------------
play 4 times      "when you know..."

9--------------------------------9---------------------12------------------------.--7----
9---------------10-9-7-9-10-9-7--9------------------.--12----------------------5-7--7----
7--7-7-7--7-7-7------------------7--7-7-7--7-7-7--7-9--10--10-10-10--10-10-10-------5--5-
-----------------------------------------------------------------------------------------

--------------.--9---------------------|--9------------------.--5------------------.--7--
--------------7--9----------------.-.--|.-9------------------5--5------------------5--7--
5-5--5-5-5--5----7--7-7-7--7-7-7--3-2--|.-7--7-7-7--7-7-7--7----3--3-3-3--3-3-3--3----5--
---------------------------------------|-------------------------------------------------
                                   ________  _______
                                   |1.2.3.  |4.
----------------.--9------------------------|--------------------------------------------
----------------5--9-----------------------.|--.-.---------------------------------------
5-5-5--5-5-5--5----7--7-7-7--7-7-7--7-7-7--.|--3-2--10-9-7-5-7--7-9-10-9-7-5-7--7-7-9-9-9
--------------------------------------------|--------------------------------------------
                                                     faster

--------------------|-------------------------------------------------------------------|
--------------------|.-----------------------------------------------------------------.|
-9--9-9-10-9-7-5-7--|.--7-9-10-9-7-5-7---7-9-10-9-7-5-7---7-7-9-9-9-9--7-9-10-9-7-5-7--.|
--------------------|-------------------------------------------------------------------|
                                                                         play 7 times

-----------------------------------------------------------------------------------------
-----------------------------------------------------------------------------------------
-7-9-10-9-7-5-7--7-9-10-9-7-5-7--7-7-9-9-9-9--7-9-10-9-7-5-7---7-9-10-9-7-5-7--7-9-10-9-7
-----------------------------------------------------------------------------------------

-----------------------------------------------------------------------------------------
------------------------------------------------------5-7-9-7-5-4-5--4-5-7-5-4------4-5-7
-5-7--7-7-9-9-9-9--7-9-10-9-7-5-7----7-9-10-9-7-9-10---------------------------5-5-------
-----------------------------------------------------------------------------------------

-----------------------------------------------------------------------------------------
-5-4------------------------5-7-9-7-5-4-5--4-5-7-5-4------4-5-7-5-4---------+------+-----
-----5-7---7-9-10-9-7-9-10---------------------------5-5------------5-7---5-7----5-7---5~
-----------------------------------------------------------------------------------------

---------------7---7---------------------------------------------------------------------
---9---9-----5---5---5-----7---7-------5---5-------5---5-------7---7-------9---9-------9-
-7---7---7---------------5---5---5---3---3---3---3---3---3---5---5---5---7---7---7---7---
-----------------------------------------------------------------------------------------
 slower

----------------------7---7--------------------------------------------------------------
--9-------9---9-----5---5---5-----7---7-------5---5---------7---------5---5-------7---7--
7---7---7---7---7---------------5---5---5---3---3---3-----7---7-----3---3---3---5---5---5
--------------------------------------------------------5-------5------------------------

-----------------------------------------7---7-------------------------------------------
-----9---9-------9---9-------9---9-----5---5---5-----7---7-------5---5-------5---5-------
---7---7---7---7---7---7---7---7---7---------------5---5---5---3---3---3---3---3---3---5-
-----------------------------------------------------------------------------------------
                          "to this day..."

------------------------------------------------7---7------------------------------------
7---7-------9---9-------9---9-------9---9-----5---5---5-----7---7---------7---------5---5
--5---5---7---7---7---7---7---7---7---7---7---------------5---5---5-----7---7-----3---3--
----------------------------------------------------------------------5-------5----------

-----------------9---------------------||
-------7---7-----9---------------------||
-3---5---5---5---7---------------------||
---------------------------------------||
Comments