Iron Maiden - Como Estais Amigos Chords & Tabs

 

Como Estais Amigos Chords & Tabs

Iron Maiden Chords & Tabs

Version: 3 Type: Tab 0 ratings
1 star 2 stars 3 stars 4 stars 5 stars
comments

Como Estais Amigos Tab

IRON MAIDEN
Como estais amigo

Intro
|------1-0------1-0------1-0------1-0------|
|------3--------3--------3--------3--------|
|---2---------2--------2--------2----------|
|-0---------0--------0--------0------------|
|------------------------------------------|
|------------------------------------------|

Verse (x4)
|-----1-0-----1--------1-0-----0-1-0-----|
|-----3-------3--0-----3-------------3---|
|---2-------2--------2-------2---------2-|
|-0-------3------------------------------|
|------------------3-------2-------------|
|----------------------------------------|

Pre Chorus 
|-------------------------0-------------------------------0-------|
|---------3-------------------------------3-----------------------|
|-----0-------0-------0-------0-------0-------0-------0-------0---|
|---3---3---3---3---3---3---3---3---3---3---3---3---3---3---3---3-|
|-1---------------3---------------1---------------3---------------|
|-----------------------------------------------------------------|

Chorus 
|-----1-0-----1-0-------------------------------------1-0-----1-0-|
|-----3-------3---------------------------------------3-------3---|
|---2-------2---------5-------2-------3-------------2-------2-----|
|-0-------3---------5---5---2---2---3---3---3-5-3-0-------0-------|  
|-----------------3-------0-------1-------3-----------------------| 
|-----------------------------------------------------------------|

|-----1-0-----1-0---------------------------------|
|-----3-------3-----------------------------------|
|---2-------2---------5-------2-------3-----------|
|-0-------3---------5---5---2---2---3---3---3-5-3-|  
|-----------------3-------0-------1-------3-------| 
|-------------------------------------------------|

|-------------------------0-------------------------------0-------|
|-----3-------3-------3-----3---------3-------3-------3-----3-----|
|---2---2---2---2---2---2-----2-----2---2---2---2---2---2-----2---|
|-0-----------------------------0-0-----------------------------0-|
|---------3-------1-----------------------3-------1---------------|
|-----------------------------------------------------------------|

|---------------------1-0-----1-0-|
|-------1-------1-----3-------3---|
|-----2-------2-----2-------2-----|
|---0-------0-----0-------0-------|
|-3-------0-----------------------|
|---------------------------------|

Verse (x4)
|-----1-0-----1--------1-0-----0-1-0-----|
|-----3-------3--0-----3-------------3---|
|---2-------2--------2-------2---------2-|
|-0-------3------------------------------|
|------------------3-------2-------------|
|----------------------------------------|

Pre Chorus
|-----------------------------------------------------------------|
|-----------------------------------------------------------------|
|-3-3-3-3-3-3-3-3-5-5-5-5-5-5-5-5-3-3-3-3-3-3-3-3-5-5-5-5-5-5-5-5-|
|-3-3-3-3-3-3-3-3-5-5-5-5-5-5-5-5-3-3-3-3-3-3-3-3-5-5-5-5-5-5-5-5-|
|-1-1-1-1-1-1-1-1-3-3-3-3-3-3-3-3-1-1-1-1-1-1-1-1-3-3-3-3-3-3-3-3-|
|-----------------------------------------------------------------|
[ Tab from: http://www.guitartabs.cc/tabs/i/iron_maiden/como_estais_amigos_tab_ver_3.html ]
Chorus 
|-----------------------------------------------------------------|-
|-----------------------------------------------------------------| -
|-7-7-7-7-3-3-3-3-5-5-5-5-2-2-2-2-3-3-3-3-5-5-5-5-7-7-7-7-7-7-7-7-|  - x3
|-7-7-7-7-3-3-3-3-5-5-5-5-2-2-2-2-3-3-3-3-5-5-5-5-7-7-7-7-7-7-7-7-|  -
|-5-5-5-5-1-1-1-1-3-3-3-3-0-0-0-0-1-1-1-1-3-3-3-3-5-5-5-5-5-5-5-5-| -
|-----------------------------------------------------------------|-
                  
              x3                                x1
|---------------------------------|---------------------------------|
|---------------------------------|---------------------------------|
|-7-7-7-7-5-5-5-5-3-3-3-3-3-3-3-3-|-5-5-5-5-2-2-2-2-7-7-7-7-7-7-7-7-|
|-7-7-7-7-5-5-5-5-3-3-3-3-3-3-3-3-|-5-5-5-5-2-2-2-2-7-7-7-7-7-7-7-7-|
|-5-5-5-5-3-3-3-3-1-1-1-1-1-1-1-1-|-3-3-3-3-0-0-0-0-5-5-5-5-5-5-5-5-|
|---------------------------------|---------------------------------|

Solo                           
|-----------------1-0~-1-0------2----2--------1-0~-1-0-----3~-|-
|--------------------------2-3~---3~---3-1-------------3-1----| -
|---------0-2-3~---------------------------3~-----------------|  -x2
|-0-0-2-3-----------------------------------------------------|  -
|-------------------------------------------------------------| -
|-------------------------------------------------------------|-

|------0-1-0-1-3-5~-3~-|-13-12-10----10-------------|-13-12-10-12-13-12-10-12-13/15-|
|-3~-3-----------------|----------13----13-10-------|-------------------------------|
|----------------------|----------------------12----|-------------------------------|
|----------------------|-------------------------10~|-------------------------------|
|----------------------|----------------------------|-------------------------------|
|----------------------|----------------------------|-------------------------------|

|-17-15-13-12-13-12---------15/17-15-13-12-13-12-----------|
|-------------------13-15~-----------------------15-13-15~-|
|----------------------------------------------------------|
|----------------------------------------------------------|
|----------------------------------------------------------|
|----------------------------------------------------------|

|-----------------1-0~-1-0------2----2--------1-0~-1-0-----3~-|-
|--------------------------2-3~---3~---3-1-------------3-1----| -
|---------0-2-3~---------------------------3~-----------------|  -x2
|-0-0-2-3-----------------------------------------------------|  -
|-------------------------------------------------------------| -
|-------------------------------------------------------------|-


Pre Chorus
|-----------------------------------------------------------------|-
|-----------------------------------------------------------------| -
|-3-3-3-3-3-3-3-3-5-5-5-5-5-5-5-5-3-3-3-3-3-3-3-3-5-5-5-5-5-5-5-5-|  - x2
|-3-3-3-3-3-3-3-3-5-5-5-5-5-5-5-5-3-3-3-3-3-3-3-3-5-5-5-5-5-5-5-5-|  -
|-1-1-1-1-1-1-1-1-3-3-3-3-3-3-3-3-1-1-1-1-1-1-1-1-3-3-3-3-3-3-3-3-| -
|-----------------------------------------------------------------|- 

Chorus
|-----------------------------------------------------------------|-
|-----------------------------------------------------------------| -
|-7-7-7-7-3-3-3-3-5-5-5-5-2-2-2-2-3-3-3-3-5-5-5-5-7-7-7-7-7-7-7-7-|  - x4
|-7-7-7-7-3-3-3-3-5-5-5-5-2-2-2-2-3-3-3-3-5-5-5-5-7-7-7-7-7-7-7-7-|  -
|-5-5-5-5-1-1-1-1-3-3-3-3-0-0-0-0-1-1-1-1-3-3-3-3-5-5-5-5-5-5-5-5-| -
|-----------------------------------------------------------------|-

|--------------------------------------|
|--------------------------------------|
|-7-7-7-5-5-5-3-3-3--7-7-7-5-5-5-3-3-3-|
|-7-7-7-5-5-5-3-3-3--7-7-7-5-5-5-3-3-3-|
|-5-5-5-3-3-3-1-1-1--5-5-5-3-3-3-1-1-1-|
|--------------------------------------|
Outro Guitar 1
|-------------0-----------------------------0-----|
|---------3-----3-------3-------3-------3-----3---|
|-7-5-3-2---2-----2-7-2---2-5-2---2-3-2---2-----2-|
|-7-5-3-------------7-------5-------3-------------|
|-5-3-1-------------5-------3-------1-------------|
|-------------------------------------------------|

|-------------------------0------------------------------1--10~~~-|
|-----3-------3-------3-----3----------1-------1-------3----------|
|-7-2---2-5-2---2-3-2---2-----2--5---2---3---2---7---2------------|
|-7-------5-------3--------------5-0-----3-0-----7-0--------------|
|-5-------3-------1--------------3-------1-------5----------------|
|-----------------------------------------------------------------|
Comments