Iron Maiden - Blood Brothers Chords & Tabs

 

Iron Maiden Chords & Tabs

Version: 1 Type: Tab 5 ratings
1 star 2 stars 3 stars 4 stars 5 stars
comments

Blood Brothers Tab

   
Title:  Blood Brothers
Artist: Iron Maiden
Album:  Brave New World
Track:  4

Tabed by: Stenaldermand aka. Sune
Feel Free to mail questions to me on:
stenaldermand@hotmail.com


 Guitar 2: (Clean)
 e|---------------------------------------
 B|---------------------------------------
 G|---------------------------------------
 D|-----------------------5---5-----7-----
 A|----2---2-----5-----3----3----5-----5--
 E|-0----0----3-----3---------------------


 e|--------------------------------------
 B|--------------------------------------
 G|--------------------------------------
 D|-----------------------5---5-----7----
 A|----2---2-----5-----3----3----5-----5-
 E|-0----0----3-----3--------------------


 e|---------------------------------------
 B|---------------------------------------
 G|---------------------------------------
 D|-----------------------5---5-----7-----
 A|----2---2-----5-----3----3----5-----5--
 E|-0----0----3-----3---------------------


                              (end Fig. 1)
 e|--------------------------------------
 B|--------------------------------------
 G|--------------------------------------
 D|-----------------------7---7-----5----
 A|----2---2-----5-----5----5----3----3--
 E|-0----0----3-----3--------------------

----------------------------------------------------------------------------

Guitar 1: (clean)
 e|----------8----7----7------------------
 B|-----------------10------10-8-10--8--7- 
 G|-9----7-9------------------------------
 D|---------------------------------------
 A|---------------------------------------
 E|---------------------------------------


 e|----------8----7----7-----------------
 B|-----------------10------10-8-7--8--7-
 G|-9----7-9-----------------------------
 D|--------------------------------------
 A|--------------------------------------
 E|--------------------------------------x2

----------------------------------------------------------------------------
Verse 1:


Guitar 2: (Clean)
 e|-------------------------------------------
 B|-------------------------------------------
 G|-------------------------------------------
 D|---9---9-----------------5---5------7--7--7
 A|-7---7---7----5---5----3---3---3---5--5--5-
 E|------------3---3---3----------------------x4


----------------------------------------------------------------------------
Verse 2:

Guitar 1 (Dist.):
 e|------------------------------------------
 B|------------------------------------------
 G|------------------------------------------
 D|-2-2--2-2--------------5--5-5-5--7-7-7----
 A|-2-2--2-2---5--5-5-5---3--3-3-3--5-5-5----
 E|-0-0--0-0---3--3-3-3----------------------x4

Guitar 2 (Clean): Plays Verse 1.
    
    

----------------------------------------------------------------------------

Chorus

EM - C - G - D x4

----------------------------------------------------------------------------
Verse 3:

Guitar 1 (Dist.):
Guitar 2 (Clean):
 e|------------------------------------------
 B|------------------------------------------
 G|------------------------------------------
 D|-2--2-2-2--------------5--5-5-5--7--7-7-7-
 A|-2--2-2-2---5--5-5-5---3--3-3-3--5--5-5-5-
 E|-0--0-0-0---3--3-3-3----------------------x4

----------------------------------------------------------------------------

Chorus

EM - C - G - D x4

----------------------------------------------------------------------------

Guitar 2: (Clean)
 e|----------8----7----7------------------
 B|-----------------10------10-8-10--8--7-
 G|-9----7-9------------------------------
 D|---------------------------------------
 A|---------------------------------------
 E|---------------------------------------


 e|----------8----7----7-----------------
 B|-----------------10------10-8-7--8--7-
 G|-9----7-9-----------------------------
 D|--------------------------------------
 A|--------------------------------------
 E|--------------------------------------x2

----------------------------------------------------------------------------

Verse 4:

Guitar 1 (Dist.):
 e|------------------------------------------
 B|------------------------------------------
 G|------------------------------------------
 D|-2-2--2-2--------------5--5-5-5--7-7-7----
 A|-2-2--2-2---5--5-5-5---3--3-3-3--5-5-5----
 E|-0-0--0-0---3--3-3-3----------------------x8

----------------------------------------------------------------------------

Chorus

EM - C - G - D x4

----------------------------------------------------------------------------

Guitar 1: (Dist.)
 e|----------8----7----7------------------
 B|-----------------10------10-8-10--8--7-
 G|-9----7-9------------------------------
 D|---------------------------------------
 A|---------------------------------------
 E|---------------------------------------


 e|----------8----7----7-----------------
 B|-----------------10------10-8-7--8--7-
 G|-9----7-9-----------------------------
 D|--------------------------------------
 A|--------------------------------------
 E|--------------------------------------x2


----------------------------------------------------------------------------
Guitar 1: (Dist) Solo 1
Guitar 2: (Clean) Plays Verse 1

Solo 1:
The Solo is maybe not 100% Corect, but you can play it like this.

 e|---------------------------------12-14-15-15b-
 B|-10/12------12-13----15b-15b------------------
 G|---------14-----------------------------------
 D|----------------------------------------------
 A|----------------------------------------------
 E|----------------------------------------------


 e|-15-14-12h14-12h14p12----15---------------------------
 B|----------------------------15b--15p13-15p13p12h13----
 G|------------------------------------------------------
 D|------------------------------------------------------
 A|------------------------------------------------------
 E|------------------------------------------------------

 e|--------------------------------------------------------
 B|--------15v----(12)-(15)p12-----------------------------
 G|-14--12---------------------14-12h14p12-----------------
 D|----------------------------------------14p12h14--12s14-
 A|--------------------------------------------------------
 E|--------------------------------------------------------

 e|------------------------------------------------------
 B|---------------------12-12h15p12-12-12----------------
 G|-12-14-14b-r(14)-14b-------------------15-14p12----12-
 D|------------------------------------------------14----
 A|------------------------------------------------------
 E|------------------------------------------------------

 e|--------------------------------------------------
 B|--------------------------------------------------
 G|-14b-r(14)p12----12v---------------------11-12-14-
 D|--------------14----------------11-12-14----------
 A|--------------------------12-14-------------------
 E|--------------------------------------------------
                                                
 e|----------------------12-14-15-15b\-------
 B|-12h13p12----12-13-15---------------------
 G|----------14------------------------------
 D|------------------------------------------
 A|------------------------------------------
 E|------------------------------------------

                  
----------------------------------------------------------------------------
Guitar 1: (Dist-)

Janick Gers play it like this on the Rock in Rio Dvd, but it is a bit diffucalt
to play it like this.
 e|-----------------------------------
 B|----12--10--12v----13--12---10-----
 G|-9-----------------------------12--
 D|-----------------------------------
 A|-----------------------------------
 E|-----------------------------------x8

It is the same tones, soif you think it is to diffucalt to play it like above 
play it like this, you can't hear the diffrence:

 e|-----7--------7-------8--7---------
 B|--------10-------------------10-8--
 G|-9---------------------------------
 D|-----------------------------------
 A|-----------------------------------
 E|-----------------------------------x8
[ Tab from: http://www.guitartabs.cc/tabs/i/iron_maiden/blood_brothers_tab.html ]
----------------------------------------------------------------------------
 Guitar2. (Clean)
 e|------------------------------------------------
 B|------------------------------------------------
 G|------------------------------------------------
 D|------------------------------------------------
 A|-x-7-7---x-7-7---x-7-7----x-7-7---x-7-7---x-7-7-
 E|------------------------------------------------

 e|------------------------------------------------
 B|------------------------------------------------
 G|------------------------------------------------
 D|------------------------------------------------
 A|-12-12-12---10-10-10---7-7-7---7-7-7------------
 E|------------------------------------------------

 e|------------------------------------------------
 B|------------------------------------------------
 G|------------------------------------------------
 D|------------------------------------------------
 A|-12-12-12---10-10-10---7-7-7---7-7-7------------
 E|------------------------------------------------

 e|----------------------------------------------------
 B|----------------------------------------------------
 G|----------------------------------------------------
 D|----------------------------------------------------
 A|-12-12-12---10-10-10---3-3-3---5-5-5---3-3-3--5-5-5-
 E|----------------------------------------------------

 e|---------------------------------
 B|---------------------------------
 G|---------------------------------
 D|---------------------------------
 A|-x-7-7---x-7-7---x-7-7----x-7-7--
 E|---------------------------------


 

----------------------------------------------------------------------------

Guitar 2: (Clean)

Riff 2

 e|--------------7------7--10---7-----7--------------7--
 B|---7-8-7-8-10----10------------10------10-8--10------
 G|-9---------------------------------------------------
 D|-----------------------------------------------------
 A|-----------------------------------------------------
 E|-----------------------------------------------------


 e|-------7--10---7-----7--------------  -----------7--
 B|---10------------10------10-8--10---  ---8--10------
 G|------------------------------------  --------------
 D|------------------------------------  --------------
 A|------------------------------------  --------------
 E|------------------------------------  --------------


 e|------------------------  ---------------------------
 B|--10-8--10---8-7--------  ----7--8---7----7----------
 G|------------------9-----  -9-----------9------9-7-9--
 D|------------------------  --------------------------9
 A|------------------------  ---------------------------
 E|------------------------  ---------------------------

 e|----------------------------------------------
 B|---------7--8---7----7-------------------7--8-
 G|------9-----------9------9--7--9------9-------
 D|----------------------------------------------
 A|----------------------------------------------
 E|----------------------------------------------


 e|--------------------------------------
 B|---7-8---7---------7------------------
 G|-9---------9--7--9----9---------------
 D|--------------------------------------
 A|--------------------------------------
 E|--------------------------------------x2


Guitar 1: (Dist.)
 e|--------------7------7--10---7-----7-----------------
 B|---7-8-7-8-10----10------------10------10-8--10--10b-
 G|-9---------------------------------------------------
 D|-----------------------------------------------------
 A|-----------------------------------------------------
 E|-----------------------------------------------------


 e|-------7--10---7-----7--------------  --------------
 B|---10------------10------10-8--10---  ---8--10--10b-
 G|------------------------------------  --------------
 D|------------------------------------  --------------
 A|------------------------------------  --------------
 E|------------------------------------  --------------


 e|------------------------  ---------------------------
 B|--10-8--10---8-7--------  ----7--8---7----7----------
 G|------------------9-----  -9-----------9------9-7-9--
 D|------------------------  --------------------------9
 A|------------------------  ---------------------------
 E|------------------------  ---------------------------

 e|----------------------------------------------
 B|---------7--8---7----7-------------------7--8-
 G|------9-----------9------9--7--9------9-------
 D|----------------------------------------------
 A|----------------------------------------------
 E|----------------------------------------------


 e|--------------------------------------
 B|---7-8---7---------7------------------
 G|-9---------9--7--9----9---------------
 D|--------------------------------------
 A|--------------------------------------
 E|--------------------------------------



----------------------------------------------------------------------------

Gutiar 1 (Dist.)
Solo 2

 e|------------------12--14--14b---14-12-------12-14--12--17b
 B|-15b-15b-15b-15b-----------------------15-----------------
 G|----------------------------------------------------------
 D|----------------------------------------------------------
 A|----------------------------------------------------------
 E|----------------------------------------------------------

 e|--17b---17-15--14---15-14----------12--14--14b---14-12----
 B|---------------------------15v--------------------------15
 G|----------------------------------------------------------
 D|----------------------------------------------------------
 A|----------------------------------------------------------
 E|----------------------------------------------------------


 e|12-14--12----------12--------------
 B|---------------15b-----15-12----12-
 G|-----------------------------15----
 D|-----------------------------------
 A|-----------------------------------
 E|-----------------------------------


 e|---------------------------------------------
 B|----------------15b--15--15b-----------------
 G|-15-14-12----12------------------------------
 D|----------14---------------------------------
 A|---------------------------------------------
 E|---------------------------------------------


 e|-17b-----17r-15p14-15p14-15p14-----14-15-17-15p14-
 B|---------------------------------15----------------
 G|---------------------------------------------------
 D|---------------------------------------------------
 A|---------------------------------------------------
 E|---------------------------------------------------


 e|----14-15p14----14-17b--17-15-14h15-14----14-----------
 B|-15----------15------------------------15-----17v------
 G|-------------------------------------------------------
 D|-------------------------------------------------------
 A|-------------------------------------------------------
 E|-------------------------------------------------------

 e|-----------------------    |-------------
 B|-15b-----r-12----------    |-------------
 G|--------------15p14p12-    |----------12-
 D|-----------------------    |-14-12-14----
 A|-----------------------    |-------------
 E|-----------------------    |-------------
                              *Overlap into chorus


----------------------------------------------------------------------------

Chorus:


EM - C - G - D

----------------------------------------------------------------------------

Outro (Clean)


 e|----------8----7----7------------------
 B|-----------------10------10-8-10--8--7-
 G|-9----7-9------------------------------
 D|---------------------------------------
 A|---------------------------------------
 E|---------------------------------------


 e|----------8----7----7-----------------
 B|-----------------10------10-8-7--8--7-
 G|-9----7-9-----------------------------
 D|--------------------------------------
 A|--------------------------------------
 E|--------------------------------------


 e|----------8----7----7------------------
 B|-----------------10------10-8-10--8--7-
 G|-9----7-9------------------------------
 D|---------------------------------------
 A|---------------------------------------
 E|---------------------------------------


 e|----------8----7----7----------------------------------|]
 B|-----------------10------10-8-7--8--7------------------|]
 G|-9----7-9------------------------------7h9-------------|]
 D|-------------------------------------------------------|]
 A|-------------------------------------------------------|]
 E|-------------------------------------------------------|]


Sune



    
Comments