Iron Maiden - Be Quick Or Be Dead Chords & Tabs

 

Be Quick Or Be Dead Chords & Tabs

Iron Maiden Chords & Tabs

Version: 4 Type: Tab 0 ratings
1 star 2 stars 3 stars 4 stars 5 stars
comments

Be Quick Or Be Dead Tab

#----------------------------------PLEASE NOTE--------------------------------#
#This file is the author's own work and represents their interpretation of the#
#song. You may only use this file for private study, scholarship, or research.#
#-----------------------------------------------------------------------------#
#-- File created with Instab - http://www.pconline.com/~smcarey/instab.html --#
#-----------------------------------------------------------------------------#

Author/Artist: Iron Maiden
Title: Be Quick or be dead solo
Album: Fera of the Dark
Transcribed by: Dvae Holland
Email: lordnazgul2000@hotmail.com

I think this is right. Have a go!!  It is quite easy, usual maiden stuff.  E-mail me with any commenrs or corrections

------------------------------------------------------------------------------|
------------------------------------------------------------------------------|
-10^12vvvv--15-17-15----15----------------------------------------------------|
---------------------17----17-15-13h15p13-------13vvvv------------------------|
------------------------------------------15-13-------------------------------|
------------------------------------------------------------------------------|


------------------------------------------------------------------------------|
------------------------------------------------------------------------------|
------------------------------------------------------------------------------|
-12h13p12-12h13p12-12h13p12-12h13p12-10---------------------------------------|
------------------------------------------------------------------------------|
------------------------------------------------------------------------------|


------------------------------------------------------------------------------|
------------------------------------------------------------------------------|
-------17--------17-----------------------------------------------------------|
-15h17-17--15h17----15h17p15-15h17p15-15h17p15-15h17p15-----------------------|
------------------------------------------------------------------------------|
------------------------------------------------------------------------------|

[ Tab from: http://www.guitartabs.cc/tabs/i/iron_maiden/be_quick_or_be_dead_tab_ver_4.html ]
-13vv-15-13-11-13-11----------------------------------------------------------|
--------------------13-11h13-11-----------------------------------------------|
--------------------------------12-10h12-10-----------------------------------|
--------------------------------------------13-10-13-10-8---8-----------------|
----------------------------------------------------------10--10-8-10-8-------|
------------------------------------------------------------------------8/----|


------------------------------------------------------------------------------|
------------------------------------------------------------------------------|
-7/10--12-10-9--10-9----------------------------------------------------------|
--------------12-----12-10-12-11h12p11h12p11----------------------------------|
---------------------------------------------11h12p11h12p11-------------------|
------------------------------------------------------------9h10p9h10p9-------|


------------------------------------------------------------------------------|
------------------------------------------------------------------------------|
------------------------------------------------------------------------------|
-------10-10-------10-10-10h12p10\*-------------------------------------------|
-10h12-------10h12------------------------------------------------------------|
------------------------------------------------------------------------------|
                                   * slide down while hammering and pulling

------------------------------------------------------------------------------|
------------------------------------------------------------------------------|
------------------17vvv-15p14-12vvv-14p12-10h12p10-10h12p10-7h10p7-7h10p7-----|
------15-12-15p12-------------------------------------------------------------|
-13-12------------------------------------------------------------------------|
------------------------------------------------------------------------------|


------------------------------------------------------------------------------|
------------------------------------------------------------------------------|
---------------------------------12h15p12-12-17p15p12-17p15p12-17p15p12-17vv--|
-10h12p10-10h12p10-7h10p7-7h10p7----------------------------------------------|
------------------------------------------------------------------------------|
------------------------------------------------------------------------------|
Comments