Iron Maiden - Another Life Chords & Tabs

 

Another Life Chords & Tabs

Iron Maiden Chords & Tabs

Version: 2 Type: Tab

Another Life Tab

   
Band:  Iron Maiden
Album: Killers
Song:  Another Life

Copyright (c)  (EMI) (1981)
Version 1.0 - (18/11/05)

Transcribed By: Steve
Email:          stephen.elvidge1@ntlworld.com


.  - palm mute           /  - slide up to
\  - slide down to       ~  - vibrato
h  - hammer on           b  - Bend
p  - pull off            Suffixes for bend
t  - tap                 f  - full bend    h - half bend
ph - pinched harmonic    q  - quarter bend t - tap bend
*  - see comment         ^  - Hold bend    r release bend
x  - Stuccatto           ~  - vibrato bend
,  - slight palm mute    () - ghost note, sustained note
"  - tremolo note        <> - Trill

Tunning E A D G B E
 

 Intro

 Both guitars

                ~~~              ~~~              ~~        ~~~
E-------------------------------------------------------------------|
B----------10-12br\---------10-12br\---------10-12br-10-------------|
G----------10-12br\---------10-12br\---------10-12br-10----10-------|
D----10-12------------10-12------------10-12------------12----12\---|
A-12---------------12---------------12------------------------------|
E-------------------------------------------------------------------|
                                                              Rpt
 
 Main Riff 

  Guitar 1
    PM   PM PM       PM  PM  PM  
E[-------------------------------------------------------|
B[-------------------------------------------------------|
G[-2---2---2---2p00-2---2---2---2--0------(0)----x-0-0---|
D[-2---2---2---2p00-2---2---2---2--0------(0)----x-0-0---|
A[-0-0-0-0-0-0-0----0-0-0-0-0-0-0------------------------|
E[---------------------------------3------(3)------3-3---|
 [Guitar 2
 [  PM   PM PM       PM  PM  PM  
E[---------------------------------3------(3)------3-3---|
B[---------------------------------3------(3)------3-3---|
G[-2---2---2---2p02-2---2---2---2--0------(0)----x-0-0---|
D[-2---2---2---2p02-2---2---2---2--0------(0)----x-0-0---|
A[-0-0-0-0-0-0-0----0-0-0-0-0-0-0------------------------|
E[-------------------------------------------------------| Rpt

 Verse

 Rpt Main Riff 2 X with guitar solo.

  Both guitars

   PM   PM PM    PM  PM  PM  PM  PM  
E---------------------------------------|
B---------------------------------------|
G-2---2---2---2-2---4---5---7---5---4\--|
D-2---2---2---2-2---4---5---7---5---4\--|
A-0-0-0-0-0-0-0---0---0---0---0---0-----|
E---------------------------------------|

 Rpt Main Riff

 Both guitars

   PM   PM PM    PM  
E-------------------|
B-------------------|
G-2---2---2---2-(2)-|
D-2---2---2---2-(2)-|
A-0-0-0-0-0-0-0-(0)-|
E-------------------|

 Twin Lead

  Guitar 1
E[-----------------------------|
B[-1515151515151515-13-11-13\--|
G[-----------------------------|
D[-----------------------------|
A[-----------------------------|
E[-----------------------------|
 [Guitar 2
E[-----------------------------|
B[-----------------------------|
G[-1515151515151515-14-12-14br-|
D[-----------------------------|
A[-----------------------------|
E[-----------------------------| Rpt 3 X
[ Tab from: http://www.guitartabs.cc/tabs/i/iron_maiden/another_life_tab_ver_2.html ]
  Guitar 1
                                        ~~~~~~~~
E[-----------------------------------------------|
B[-15--13--11--13\--15-13-11-----------13------\-|
G[---------------------------14-12-10------------|
D[-----------------------------------------------|
A[-----------------------------------------------| 
E[-----------------------------------------------|
 [
 [Guitar 2
 [                                      ~~~~~~~~
E[-------------------------------------12------\-|
B[-----------------------------------------------|
G[-15--14--12--14br--15-14-12--------------------|
D[----------------------------15-14-12-----------|
A[-----------------------------------------------|
E[-----------------------------------------------|

 Rpt Verse and twin lead.

 Guitar on own

E----------------------------------------------------------------|
B----------------------------------------------------------------|
G-5-5-5-5-555-55/8-8-8-8-888-88\7-7-7-7-777-77\6/77-6/77-6/77-77-|
D-5-5-5-5-555-55/8-8-8-8-888-88\7-7-7-7-777-77\6/77-6/77-6/77-77-|
A-3-3-3-3-333-33/6-6-6-6-666-66\5-5-5-5-555-55\4/55-4/55-4/55-55-|
E----------------------------------------------------------------|

  Guitar 1
E[----------------------------------------------------------------|
B[----------------------------------------------------------------|
G[-5-5-5-5-555-55/8-8-8-8-888-88\7-7-7-7-777-77\6/77-6/77-6/77-77-|
D[-5-5-5-5-555-55/8-8-8-8-888-88\7-7-7-7-777-77\6/77-6/77-6/77-77-|
A[-3-3-3-3-333-33/6-6-6-6-666-66\5-5-5-5-555-55\4/55-4/55-4/55-55-|
E[----------------------------------------------------------------|
 [
 [Guitar 2
E[----------------------------------------------------------------|
B[----------------------------------------------------------------|
G[-5-5-5-5---(5)--8-8-8-8---(8)--7-7-7-7------(7)-----------------|
D[-5-5-5-5---(5)--8-8-8-8---(8)--7-7-7-7------(7)-----------------|
A[-3-3-3-3---(3)--6-6-6-6---(6)--5-5-5-5------(5)-----------------|
E[----------------------------------------------------------------|

 Both guitars

E----------------------------------------------------------------|
B----------------------------------------------------------------|
G-5-5-5-5-555-55/8-8-8-8-888-88\7-7-7-7-777-77\6/77-6/77-6/77-77-|
D-5-5-5-5-555-55/8-8-8-8-888-88\7-7-7-7-777-77\6/77-6/77-6/77-77-|
A-3-3-3-3-333-33/6-6-6-6-666-66\5-5-5-5-555-55\4/55-4/55-4/55-55-|
E----------------------------------------------------------------|

  Guitar 1
E[----------------------------------------------------------------|
B[----------------------------------------------------------------|
G[-5-5-5-5-555-55/8-8-8-8-888-88\10101010101010/13-----(12)-------|
D[-5-5-5-5-555-55/8-8-8-8-888-88\10101010101010/13-----(12)-------|
A[-3-3-3-3-333-33/6-6-6-6-666-66\8-8-8-8-888-88/11-----(11)-------|
E[----------------------------------------------------------------|
 [Guitar 2
E[----------------------------------------------------------------|
B[----------------------------------------------------------------|
G[-5-5-5-5-555-55/8-8-8-8-888-88----------------------------------|
D[-5-5-5-5-555-55/8-8-8-8-888-88-3-3-3-3-333-33/6------(6)--------|
A[-3-3-3-3-333-33/6-6-6-6-666-66-3-3-3-3-333-33/6------(6)--------|
E[-------------------------------1-1-1-1-111-11/4------(4)--------|

 Rpt Main Riff 2 X with guitar solo.
 Rpt Verse

 Ending

E-------------------------------------------------------------------|
B-------------------------------------------------------------------|
G-5-----------------------------------------------------------------|
D-5------Ad lib rock and roll ending--------------------------------|
A-3-----------------------------------------------------------------|
E-------------------------------------------------------------------|

E-------------------------------------------------------------------|
B-------------------------------------------------------------------|
G-3-----------------------------------------------------------------|
D-3------Ad lib rock and roll ending----------------Feedback--------|
A-1-----------------------------------------------------------------|
E-------------------------------------------------------------------|

E-------|
B-------|
G-------|
D-7\----|
A-7\----|
E-5\----|




END