Iron Maiden - Alexander The Great Chords & Tabs

 

Alexander The Great Chords & Tabs

Iron Maiden Chords & Tabs

Version: 1 Type: Bass Tab 0 ratings
1 star 2 stars 3 stars 4 stars 5 stars
comments

Alexander The Great Bass Tab

                                  ALEXANDER THE GREAT
                                      IRON MAIDEN
                          FROM THE ALBUM " SOMEWHERE IN TIME "
                                       BASS TAB
                     TRANSCRIBED BY DARGOR ( dargor_k@hotmail.com )


                -------------------------------------------------
                |  :    REPEAT          |  h    HAMMER ON       |
                |  /    SLIDE UP        |  p    PULL OFF        |
                |  \    SLIDE DOWN      | ( )   HARMINICS       |
                |  >    ACCENT          |  ~    STRING BEND     |
                |  .    STACATTO        |  +    LET RING        |
                -------------------------------------------------



-------------------------|---------------------------------------------------------------
-------------------------|.--------------------------------------------------------------
-------------------------|.-7---7--7-7-7-7-7-7-7--7---7--7-7-7-7-7-7-7-7--7---7--7-7-7-7-
-------------------------|----7---------------------7-----------------------7------------
speaked intro "my son..."

-----------------------------------------------------------------------------------------
-----------------------------------------------------------------------------------------
7-7-7-7--7---7--7-7-7-7-7-7-7-7--5---5--5-5-5-5-5-5-5-5--5---5--5-5-5-5-5-5-5-5--5---5--5
-----------7-----------------------5-----------------------5-----------------------5-----

-----------------------------------------|-----------------------------------------------
----------------------------------------.|-----------------------------------------------
-5-5-5-5-5-5-5--5---5--5-5-5-5-5-5-5-5--.|-7------------------7---------------3----------
------------------5----------------------|-0------------------0--------------------------

-----------------------------------------------------------------------------------------
-----------------------------------------------------------------------------------------
3-5-7-------------------7-------------------7------------------3--------------3-5-7------
----0-------------------0-------------------0-------------------------------------0------

-----------------------------------------------------------------------------------------
-----------------------------------------------------------------------------------------
------7--7-7-7--7-7-7--7-7-7--7-7-7--7-7-7--7-7-7--7-7-3--3-3-3--3-3-3--3-3-3--3-3-7--7-7
-----------------------------------------------------------------------------------------
      faster, heavier

-----------------------------------------------------------------------------------------
-----------------------------------------------------------------------------------------
-7--5-3-2--2-2-2--7-7-7--7-7-7--7-7-7--7-7-7--7-7-7--7-7-7--7-7-3--3-3-3--3-3-3--3-3-3---
-----------------------------------------------------------------------------------------

---------------------------|-------------------------------------------------------------
---------------------------|.------------------------------------------------------------
3-3-7--7-7-7--5-3-2--2-2-2-|.-7--7-7-7--7-7-7--7-7-7--7-7-7--7-7-7--7-7-7--7-7-3--3-3-3--
---------------------------|-------------------------------------------------------------
                              lyrics enter

------------------------------------------|----------------------------------------------
-----------------------------------------.|----------------------------------------------
3-3-3--3-3-3--3-3-2--2-2-2---------------.|-7--7-7-7--7-7-7--7-7-7--7-7-5--5-5-5--5-5-5--
----------------------------5-3-2--2-2-2--|----------------------------------------------
                           play 4 times     "Alexander the great..."

-----------------------------------------------------------------------------------------
-----------------------------------------------------------------------------------------
5-5-5--5-5-0--0-0-0--0-0-0--0-0-0--0-0-3--3-3-3--3-3-5--5-5-5--5-5-7--7-7-7--7-7-7--7-7-7
-----------------------------------------------------------------------------------------

-----------------------------------------------------------------------------------------
-----------------------------------------------------------------------------------------
--7-7-5--5-5-5--5-5-5--5-5-5--5-5-0--0-0-0--0-0-0--0-0-0--0-0-3--3-3-3--3-3-5--5-5-5--5-5
-----------------------------------------------------------------------------------------

-----------------------------------------------------------------------------------------
-------------------------------------------------->--------------------------------------
-7--7-7-7--7-7-7--7-7-7--7-7-3--3-3-3--3-3-3--3-3-2---7--7-7-7--7-7-7--7-7-7--7-7-3--3-3-
-----------------------------------------------------------------------------------------

-----------------------------------------------------------------.-.---------------------
-------------->---7--7-7-7--7-7-7--7-7-7--7-7-3--3-3-3--3-3-3--2-5-2---7--7-7-7--7-7-7---
3--3-3-3--3-3-2--------------------------------------------------------------------------
-----------------------------------------------------------------------------------------

------------------------------.-.--|-----------------------------------------------------
7-7-7--7-7-3--3-3-3--3-3-3--2-5-2--|.----------------------------------------------------
-----------------------------------|.-7--7-7-7--7-7-7--7-7-7--7-7-7--7-7-7--7-7-7--7-7-3-
-----------------------------------|-----------------------------------------------------

-------------------------------------------|---------------------------------------------
------------------------------------------.|---------------------------------------------
-3-3-3--3-3-3--3-3-3--3-3-2---------------.|-7-7-7--7-7-7--7-7-7--7-7-5--5-5-5--5-5-5--5-
-----------------------------5-3-2--2-2-2--|---------------------------------------------
                            play 4 times

-----------------------------------------------------------------------------------------
-----------------------------------------------------------------------------------------
5-5--5-5-0--0-0-0--0-0-0--0-0-0--0-0-3--3-3-3--3-3-5--5-5-5--5-5-7--7-7-7--7-7-7--7-7-7--
-----------------------------------------------------------------------------------------

-----------------------------------------------------------------------------------------
-----------------------------------------------------------------------------------------
7-7-5--5-5-5--5-5-5--5-5-5--5-5-0--0-0-0--0-0-0--0-0-0--0-0-3--3-3-3--3-3-5--5-5-5--5-5-7
-----------------------------------------------------------------------------------------

|--------------------------------------------------|
|.------------------------------------------------.|
|.--2-2--2-2-2-2-2--2--2-2--2--2-2-2-2--2-2--2-2--.|
|--------------------------------------------------|
   accent with drums                 play 4 times

|--------------------------------------------------|
|.------------------------------------------------.|
|.--0-0--0-0-0-0-0--0--0-0--0--0-0-0-0--0-0--0-0--.|
|--------------------------------------------------|
                                     play 2 times

|--------------------------------------------------|
|.------------------------------------------------.|
|.--2-2--2-2-2-2-2--2--2-2--2--2-2-2-2--2-2--2-2--.|
|--------------------------------------------------|

|--------------------------------------------------|
|.------------------------------------------------.|
|.--4-4--4-4-4-4-4--4--4-4--4--4-4-4-4--4-4--4-4--.|
|--------------------------------------------------|

-----------------------------------------------------------------------------------------
---------------------------------------------------------------------75475475454---------
-6-6--6-6-6-6-6--6--6-6--6--6-6-6-6--6-6--6-6---6--6-6-6-6-6--6--6-6-------------7-------
---------------------------------------------------------------------------------0-------
[ Tab from: http://www.guitartabs.cc/tabs/i/iron_maiden/alexander_the_great_btab.html ]
-----------------------------------------------------------------------------------------
-----------------------------------------------------------------------------------------
-------7--------------------7-------------------3---------5---------0-0-0-0-0-0-0-0-0-0-0
-----0-0------------------0-0------------------------------------------------------------
                                                                    faster

-----------------------------------------------------------------|-----------------------
-----------------------------------------------------------------|.----------------------
-0-0-0-0-0-0-0-0-0-0-0-0-0-0-0-0-0-0-0-0-0-0-0-0-0-0-0-0-0-0-0-0-|.-0-0-0-0-0-0-0-0-0-0-0
-----------------------------------------------------------------|-----------------------

-----------------------------------------------------------------------------------------
-----------------------------------------------------------------------------------------
-0-0-0-0-0--3-3-3-3-3-3-3-3-3-3-3-3-3-3-3-3-----------------------------------2-2-2-2-2-2
---------------------------------------------3-3-3-3-3-3-3-3-3-3-3-3-3-3-3-3-------------

     __________________ ____________________________
     |1.2.3.4           |5.
------------------------|----.-------->->->-.--------------------------------------------
-----------------------.|----2-->->->-0-2-3-2--------------------------------------------
-2-2-------------------.|->-----0-2-3---------5-3-2--0-0-0-0-0-0-0-0-0-0-0-0-0-0-0-0--3-3
-------2-2-2-2-2-2-2-2--|-2--------------------------------------------------------------
          play 5 times
 solo begins at 5th time

-----------------------------------------------------------------------------------.-----
-----------------------------------------------------------------------------------2-->->
-3-3-3-3-3-3-3-3-3-3-3-3-3-3-----------------------------------2-2-2-2-2-2-2-2-->-----0-2
------------------------------3-3-3-3-3-3-3-3-3-3-3-3-3-3-3-3-------------------2--------

--->->->-.-------------------------------------------------------------------------------
->-0-2-3-2-------------------------------------------------------------------------------
-3---------5-3-2--0-0-0-0-0-0-0-0-0-0-0-0-0-0-0-0--3-3-3-3-3-3-3-3-3-3-3-3-3-3-3-3-------
------------------------------------------------------------------------------------3-3-3

-----------------------------------------------------------------------------------------
-----------------------------------------------------------------------------------------
----------------------------2-2-2-2-2-2-2-2------------------7-7-7-7-7-7-7-7-7-7-7-7-7-7-
-3-3-3-3-3-3-3-3-3-3-3-3-3------------------2-2-2-2-2-2-2-2------------------------------

-----------------------------------------------------------------------------------------
--------------------------------------5-5-5-5-5-5-5-5-5-5-5-5-5-5-5-5--------------------
7-7--3-3-3-3-3-3-3-3-3-3-3-3-3-3-3-3-----------------------------------5-5-5-5-5-5-5-5-3-
-----------------------------------------------------------------------------------------

-----------------------------------------------------------------------------------------
-------------.--------------------------------------------------------------------5-5-5-5
3-3-3-3-3-3--5--7-7-7-7-7-7-7-7-7-7-7-7-7-7-7-7--3-3-3-3-3-3-3-3-3-3-3-3-3-3-3-3---------
-----------------------------------------------------------------------------------------

-----------------------------------------------------------------------------------------
-5-5-5-5-5-5-5-5-5-5-5-5---------------------------------.-------------------------------
--------------------------5-5-5-5-5-5-5-5-3-3-3-3-3-3-3--5--7-7-7-7-7-7-7-7-7-7-7-7-7-7-7
-----------------------------------------------------------------------------------------

-----------------------------------------------------------------------------------------
-------------------------------------5-5-5-5-5-5-5-5-5-5-5-5-5-5-5-5---------------------
-7--3-3-3-3-3-3-3-3-3-3-3-3-3-3-3-3-----------------------------------5-5-5-5-5-5-5-5-3-3
-----------------------------------------------------------------------------------------

-----------------------------------------------------------------------------------------
------------.----------------------------------------------------------------------------
-3-3-3-3-3--5--7--7-7-7--7-7-7--7-7-7--7-7-7--7-7-7--7-7-7--7-7-5--5-5-5--5-5-5--5-5-5--5
-----------------------------------------------------------------------------------------
              a little slower (lyrics enter again)

-----------------------------------------------------------------------------------------
-----------------------------.-.---------------------------------------------------------
-5-5-2--2-2-2--2-2-2--2-2-2--3-5--7--7-7-7--7-7-7--7-7-7--7-7-7--7-7-7--7-7-7--7-7-5--5-5
-----------------------------------------------------------------------------------------

----------------------------------------------------------------------------.------------
----------------------------------------------.-.---------------------------5------------
-5--5-5-5--5-5-5--5-5-2--2-2-2--2-2-2--2-2-2--3-5--7--7-7-7--7-7-7--7-7-7-7---5--5-5-5--5
-----------------------------------------------------------------------------------------

-------------------------------------------.---------------------------------------------
------------------------------------------55---------------------------------------------
-5-5--5-5-5--5-5-7--7-7-7--7-7-7--7-7-7-7----5--5-5-5--5-5-5--5-5-5--5-5-7--7-7-7--7-7-7-
-----------------------------------------------------------------------------------------

-----------------------------------------------------------------------------------------
-------------------------------------------------------------------------------------.-.-
-7-7-7--7-7-7--7-7-7--7-7-7--7-7-5--5-5-5--5-5-5--5-5-5--5-5-2--2-2-2--2-2-2--2-2-2--3-5-
-----------------------------------------------------------------------------------------

-----------------------------------------------------------------------------------------
-----------------------------------------------------------------------------------------
-7--7-7-7--7-7-7--7-7-7--7-7-5--5-5-5--5-5-5--5-5-5--5-5-0--0-0-0--0-0-0--0-0-0--0-0-3---
-----------------------------------------------------------------------------------------

-----------------------------------------------------------------------------------------
-----------------------------------------------------------------------------------------
3-3-3--3-3-5--5-5-5--5-5-7--7-7-7--7-7-7--7-7-7--7-7-5--5-5-5--5-5-5--5-5-5--5-5-0--0-0-0
-----------------------------------------------------------------------------------------

-----------------------------------------------------------------------------------------
-----------------------------------------------------------------------------------------
--0-0-0--0-0-0--0-0-3--3-3-3--3-3-5--5-5-5--5-5-7--7-7-7--7-7-7--7-7-7--7-7-7--7-7-7--7-7
-----------------------------------------------------------------------------------------

-----------------------------------------------------------------------------------------
-----------------------------------------------------------------------------------------
-7--7-7-3--3-3-3--3-3-3--3-3-3--3-3-7--7-7-7--5-3-2--2-2-2---7-7-7--7-7-7--7-7-7--7-7-7--
-----------------------------------------------------------------------------------------

-----------------------------------------------------------------------------------------
-----------------------------------------------------------------+-----------------------
7-7-7--7-7-7--7-7-3--3-3-3--3-3-3--3-3-3--3-3-7--7--7--7---5--3--2---------+----+-----+--
---------------------------------------------------------------------5--3--2----3-----2--
                                                 ritard

-------------12-12---11---9-------------------------||
---------------------------------------+------------||
---+------7-------------------10---9---7------------||
---0------------------------------------------------||
Comments