Iron And Wine - Upward Over The Mountain Chords & Tabs

 

Upward Over The Mountain Chords & Tabs

Iron And Wine Chords & Tabs

Version: 1 Type: Tab 0 ratings
1 star 2 stars 3 stars 4 stars 5 stars
comments

Upward Over The Mountain Tab

   
Ok you guys.... Here is the Tab as near as I can make out. It's not exact but it sounds 
with just one guitar. Listen to the song to get the rythm,
Mark Phillips


e----------------------------\\-/
B-------------0-------------\\--/
G------0---------0---------\\---/
D--------------------2------\\--/
A-----------2------------2--\\--/
Eó0------------------------\\---/
Em riff

e\\-----------------------------/
B\\-------------1-------------\-/
G\\------0-----------0--------\-/
D\\----------2----------2----\--/
A\\-3----------------------3-\--/
E\\---------------------------\-/
  C riff

e\\------------------------------------/
B\-----------------0-------------------/
G\-------0-------------0---------------/
D\--------------------------0----------/
A\------------2----------------2-------/
E\--3----------------------------------/
G riff

e/-----------------------------/
B/-------------0---------------/
G/------2----------2-----------/
D/----------0----------0-------/
A/--0---------------------0----/
E/-----------------------------/
D riff

[ Tab from: http://www.guitartabs.cc/tabs/i/iron_and_wine/upward_over_the_mountain_tab.html ]
Em riff           C riff                     G riff                              D riff
Mother don't worry, I killed the last snake that lived in a creek bed
Mother don't worry, I got some money I saved for the weekend
Mother remember being so stern about the girl who was with me
Mother remember the blink of an eye when I breathed through your body

Em riff       C riff               G riff                              D riff
So may the sunrise spring hope where it once was forgotten
Sons are like birds, flying upwards over the mountain

(Same Pattern)

Mother I made it up from the bruise of a floor of this prison
Mother I lost it, all of the fear of the Lord I was given
Mother forget me now that the creek drank the cradle you sang to
Mother forgive me, I sold your car for the shoes that I gave you

Em riff          C riff             G riff                    D riff
So may the sunrise bring hope where it once was forgotten
Sons are like birds flying upwards over the mountain


Em riff		 C riff		   G riff			D riff
Mother don't worry, I've got a coat & some friends on the corner
Mother don't worry, she's got a garden we're planting together
Mother remember the night that the dog had her pups in the pantry?
Blood on the floor & the fleas on their paws and you cried 'til the morning

Em riff          C riff              G riff                         D riff
So may the sunrise bring hope where it once was forgotten
Sons are like birds flying upwards over the mountain
Comments