Iron And Wine - Sunset Soon Forgotten Chords & Tabs

 

Sunset Soon Forgotten Chords & Tabs

Iron And Wine Chords & Tabs

Version: 3 Type: Tab 0 ratings
1 star 2 stars 3 stars 4 stars 5 stars
comments

Sunset Soon Forgotten Tab

Sunset Soon Forgotten
Iron and Wine
Hello Friends, you'll like this song, esp now that I fixed it. The tuning is different
D G D G B D. It makes it sounds really full and is also heaps easier to play. So enjoy,
and keep it real.
 
chrismagowan@hotmail.com


D|-----0-----------0-------------0-------------0---------------|
B|-1---------1-----------1-------------1-------------1-------1-|
G|---0---0-----0-----0---------0---0---------0---0---------0---|
D|-2-------2-----2-----2---0H2-------2---0H2-------2---0H2-----|
G|-------------------------------------------------------------|
D|-------------------------------------------------------------|
   Be       this           sunset          soon   forgotten
----------------------------------------------------------------|
-------0-------0-------0-------0-------0-------0-------0-------0|
-----0-------0-------0-------0-------0-------0-------0-------0--|
-----------0---------------0---------------0---------------0----|
-2S4-----0-------2S4-----0-------2S4-----0-------2s4-----0------|
----------------------------------------------------------------|

D|-----0-----------0-------------0-------------0---------------|
B|-1---------1-----------1-------------1-------------1-------1-|
G|---0---0-----0-----0---------0---0---------0---0---------0---|
D|-2-------2-----2-----2---0H2-------2---0H2-------2---0H2-----|
G|-------------------------------------------------------------|
D|-------------------------------------------------------------|
       Your brothers    left    here  shaved  and  crazy
----------------------------------------------------------------|
-------0-------0-------0-------0-------0-------0-------0-------0|
-----0-------0-------0-------0-------0-------0-------0-------0--|
-----------0---------------0---------------0---------------0----|
-2S4-----0-------2S4-----0-------2S4-----0-------2s4-----0------|
----------------------------------------------------------------|
[ Tab from: http://www.guitartabs.cc/tabs/i/iron_and_wine/sunset_soon_forgotten_tab_ver_3.html ]
D|-----0-----------0-------------0-------------0---------------|
B|-1---------1-----------1-------------1-------------1-------1-|
G|---0---0-----0-----0---------0---0---------0---0---------0---|
D|-2-------2-----2-----2---0H2-------2---0H2-------2---0H2-----|
G|-------------------------------------------------------------|
D|-------------------------------------------------------------|
     We've     learned   to hide   our bottles  in the well
----------------------------------------------------------------|
-------0-------0-------0-------0-------0-------0-------0-------0|
-----0-------0-------0-------0-------0-------0-------0-------0--|
-----------0---------------0---------------0---------------0----|
-2S4-----0-------2S4-----0-------2S4-----0-------2s4-----0------|
----------------------------------------------------------------|

D|-----0-----------0-------------0-------------0---------------|
B|-1---------1-----------1-------------1-------------1-------1-|
G|---0---0-----0-----0---------0---0---------0---0---------0---|
D|-2-------2-----2-----2---0H2-------2---0H2-------2---0H2-----|
G|-------------------------------------------------------------|
D|-------------------------------------------------------------|
   And    what's     worth   keeping, suns    still sinking
----------------------------------------------------------------|
-------0-------0-------0-------0-------0-------0-------0-------0|
-----0-------0-------0-------0-------0-------0-------0-------0--|
-----------0---------------0---------------0---------------0----|
-2S4-----0-------2S4-----0-------2S4-----0-------2s4-----0------|
----------------------------------------------------------------|


D|-----0-----------0-----------0-----------0-------|----------------|
B|-3---------3-------------1---------1-----------1-|------0-------0-|
G|---0---0-----0-----0-------0---0-----0-----0-----|.---0-------0--.|
D|-4-------4-----4-----4---2-------2-----2-----2---|.---------0----.|
G|-------------------------------------------------|2S4-----0-------|
D|-------------------------------------------------|--------------x4|
            Down and          down           once    again

D|-----0-----------0-----------0-----------0-------|----------------|
B|-3---------3-------------1---------1-----------1-|------0-------0-|
G|---0---0-----0-----0-------0---0-----0-----0-----|.---0-------0--.|
D|-4-------4-----4-----4---2-------2-----2-----2---|.---------0----.|
G|-------------------------------------------------|2S4-----0-------|
D|-------------------------------------------------|--------------x4|
          Down and           down                gone again


Same style for the rest of the song. dood.

Be this sunset one for keeping
This june bug street sings low and lovely
Those band-aid children
Chased your dog away
She runs, returning, sun still sinking
Down and down once again
Down and down gone again

Anyhow, enjoy.
Comments