Iron And Wine - Sunset Soon Forgotten Chords & Tabs

 

Sunset Soon Forgotten Chords & Tabs

Iron And Wine Chords & Tabs

Version: 1 Type: Tab 0 ratings
1 star 2 stars 3 stars 4 stars 5 stars
comments

Sunset Soon Forgotten Tab

   
Iron and Wine - "Sunset Soon Forgotten" from "Our Endless Numbered Days"

Comments: 
drussel9@uwo.ca

There's only two parts played over and over in this song really, 
the intro-verse part & the chorus part.  I haven't figured out the 
slide solo part but it sounds straight-forward. Cheers. 

H=hammer-on
S=slide

Intro/verse 
[ Tab from: http://www.guitartabs.cc/tabs/i/iron_and_wine/sunset_soon_forgotten_tab.html ]
E|-----0-----------0-------------0-------------0---------------
B|-3---------3-----------3-------------3-------------3-------3-
G|---2---2-----2-----2---------2---2---------2---2---------2---
D|-4-------4-----4-----4---2H4-------4---2H4-------4---2H4-----
A|-------------------------------------------------------------
E|-------------------------------------------------------------
cont...
----------------------------------------------------------------|
-------2-------2-------2-------2-------2-------2-------2-------2|
-----2-------2-------2-------2-------2-------2-------2-------2--|
-----------2---------------2---------------2---------------2----|
-2S4-----0-------2S4-----0-------2S4-----0-------2s4-----0------|
----------------------------------------------------------------|

Chorus: 
Down and Down...                                           etc.....  
E|-----0-----------0-----------0-----------0----------------------
B|-5---------5-------------3---------3-----------3-------2-------2
G|---4---4-----4-----4-------2---2-----2-----2---------2-------2--
D|-6-------6-----6-----6---4-------4-----4-----4-------------2----
A|-------------------------------------------------2S4-----0------
E|----------------------------------------------------------------

Be this sunset soon forgotten 
Your brothers left here shaved and crazy 
We’ve learned to hide our bottles in the well 
And what's worth keeping, sun still sinking 
Down and down 
Once again 
Down and down 
Gone again 

Be this sunset one for keeping 
This june bug street sings low and lovely 
Those band-aid children 
Chased your dog away 
She runs, returning, sun still sinking 
Down and down 
Once again 
Down and down 
Gone again
Comments