Iron And Wine - Sunset And Soon Forgotten Chords & Tabs

 

Sunset And Soon Forgotten Chords & Tabs

Iron And Wine Chords & Tabs

Version: 1 Type: Tab 0 ratings
1 star 2 stars 3 stars 4 stars 5 stars
comments

Sunset And Soon Forgotten Tab

Sunset and Soon Forgotten
Iron and Wine
Tabbed by Doug Campbell (July 25th, 2005)
http://www.dougcampbell.net

Capo on 2

Tuning: EGDGBD

basic chord structures:

verse:       chorus:
X02010       X44030
X40000       X22010
X00000       X40000
             X00000


Verse:

D |----------0-----------------------------------0-|
B |-0-h1-----------------1-----------1-------------|
G |----0-----------0-----------0--------------0----|
D |-------2-----------2-----------2-----0-h2-------|
G |-0-----------0-----------0----------------------|
D |------------------------------------------------|


D |----------------------0-----------------------0-|
B |----------1-----------------------1-------------|
G |----0--------------0--------0--------------0----|
D |-------2-----0-h2--------------2-----0-h2-------|
G |-0-----------------------0----------------------|
D |------------------------------------------------|


D |------------------------------------------------|
B |----------0-----------0-----------0-----------0-|
G |----0-----------0-----------0-----------0-------|
D |-------0-----------0-----------0-----------0----|
G |2/4----------0----------2/4----------0----------|
D |------------------------------------------------|


D |------------------------------------------------|
B |----------0-----------0-----------0-----------0-|
G |----0-----------0-----------0-----------0-------|
D |-------0-----------0-----------0-----------0----|
G |2/4----------0----------2/4----------0----------|
D |------------------------------------------------|


note: on the recording, Sam Beam sometimes starts out with 
the hammer on on the  fifth string. other times, he 
simply plays the 1st fret of the fifth string. the 
song begins with the former.


Chorus:
[ Tab from: http://www.guitartabs.cc/tabs/i/iron_and_wine/sunset_and_soon_forgotten_tab.html ]
D |----------0-----------------------0-------------|
B |-3--------------------3-------------------------|
G |----0-----------0-----------0-----------0-------|
D |-------4-----------4-----------4-----------4----|
G |-4-----------4-----------4-----------4----------|
D |------------------------------------------------|


D |----------0-----------------------0-------------|
B |-1--------------------1-----------------------1-|
G |----0-----------0-----------0-----------0-------|
D |-------2-----------2-----------2-----------2----|
G |-2-----------2-----------2-----------2----------|
D |------------------------------------------------|


D |------------------------------------------------|
B |----------0-----------0-----------0-----------0-|
G |----0-----------0-----------0-----------0-------|
D |-------0-----------0-----------0-----------0----|
G |2/4----------0----------2/4----------0----------|
D |------------------------------------------------|


D |------------------------------------------------|
B |----------0-----------0-----------0-----------0-|
G |----0-----------0-----------0-----------0-------|
D |-------0-----------0-----------0-----------0----|
G |2/4----------0----------2/4----------0----------|
D |------------------------------------------------|


Verse x 2

Verse x 4:
Be this sunset soon forgotten
Your brothers left here shaved and crazy
We've learned to hide our bottles in the well
And what's worth keeping, sun still sinking

Chorus x 2:
Down and down
Once again
Down and down
Gone again

Verse x 2 (w/ slide guitar)

Verse x 4:
Be this sunset one for keeping
This june bug street sings low and lovely
Those band-aid children chased your dog away
She runs, returning, sun still sinking

Chorus x 2:
Down and down
Once again
Down and down
Gone again

Verse x 2



Comments